» » »

Hellspawn Tabs (ver.1)

Artists:  A B C D E F G H I J K L M N O P Q R S T U V W X Y Z # 

Hellspawn Tabs (ver.1)

Debauchery
Rating:
0/5 (0 votes)

Hard to play? Try these video lessons and learn fast.
                Band: Debauchery

Tuning: D


d|-------|
A|-------|
F|-------|
C|--2-2--|
G|--2-2--|
D|--0-0--| 4x


d|-----------------------------|
A|-----------------------------|
F|-----------------------------|
C|--2-2--2-2--2-2--2-2----4-5--|
G|--2-2--2-2--2-2--2-2-22-4-5--|
D|--0-0--0-0--0-0--0-0-00-2-3--| 2x
pm:                    **


d|------------------------------------------|
A|------------------------------------------|
F|------------------------------------------|
C|--2--------2----------2--------2-----4-5--|
G|--2-222222-2-2222222--2-222222-2-222-4-5--|
D|--0-000000-0-0000000--0-000000-0-000-2-3--| 2x
pm:   ******   *******    ******   ***


d|----------------------------------|
A|----------------------------------|
F|----------------------------------|
C|------------3(3)(3)-2(2)(2)-0(0)--|
G|--22222222------------------------|
D|--00000000------------------------| 4x
pm: ********


d|-----------------------------------|
A|-----------------------------------|
F|-----------------------------------|
C|--2----2-----3(3)(3)-2(2)(2)-0(0)--|
G|--2-22-2-22------------------------|
D|--0-00-0-00------------------------| 4x
pm:   **   **


d|-----------------|
A|-----------------|
F|--2-2-2-2-3-2-0--|
C|-----------------|
G|-----------------|
D|-----------------| 4x


d|------------------------------|
A|------------------------------|
F|------------------------------|
C|--2--2--3(3)(3)-2(2)(2)-0(0)--|
G|--2--2------------------------|
D|--0--0------------------------| 4x


d|-----------------------------------|
A|-----------------------------------|
F|-----------------------------------|
C|--2----2-----3(3)(3)-2(2)(2)-0(0)--|
G|--2-22-2-22------------------------|
D|--0-00-0-00------------------------| 4x
pm:   **   **


d|-----------------|
A|-----------------|
F|--2-2-2-2-3-2-0--|
C|-----------------|
G|-----------------|
D|-----------------| 4x


d|------------------------------|
A|------------------------------|
F|------------------------------|
C|--2--2--3(3)(3)-2(2)(2)-0(0)--|
G|--2--2------------------------|
D|--0--0------------------------| 4x


d|----------------------------------|
A|----------------------------------|
F|----------------------------------|
C|------------3(3)(3)-2(2)(2)-0(0)--|
G|--22222222------------------------|
D|--00000000------------------------| 4x
pm: ********


d|----------------------------------|    d|-----|
A|----------------------------------|    A|-----|
F|----------------------------------|    F|-----|
C|--22222222--3(3)(3)-2(2)(2)-0(0)--|    C|--2--|
G|--22222222------------------------|    G|--2--|
D|--00000000------------------------| 4x D|--0--| (only 4th time)


hope you enjoy it !!!
            
Hard to play? Try these video lessons and learn fast. | Correct




comments powered by Disqus
↑ Back to top | Tablatures and chords are parodies/interpretations of the original songs. You may use it for private study, scholarship, research or language learning purposes only