» » »

Debauchery, Chainsaw Masturbation Tabs (ver.1)

Artists:  A B C D E F G H I J K L M N O P Q R S T U V W X Y Z # 

Chainsaw Masturbation Tabs (ver.1)

Debauchery Tabs
 Rating:
4/5 (5 votes)
Chainsaw Masturbation lessons Tabs too difficult? Try these video lessons and learn fast
1
                Band: Debauchery

Tuning: D


d|------------------------------------|
A|------------------------------------|
F|------------------------------------|
C|--2-----3-----2-----3----------4-5--|
G|--2-(2)-3-(2)-2-(2)-3-(2)-2222-4-5--|
D|--0-(0)-1-(0)-0-(0)-1-(0)-0000-2-3--| 4x
pm:    *     *     *     *  ****


d|-----------|
A|-----------|
F|-----------|
C|--2-2-5-4--|
G|--2-2-5-4--|
D|--0-0-3-2--| 4x


d|-------------------|
A|-------------------|
F|-------------------|
C|--2-----5-4-2---3--|
G|--2-2-2-5-2-2-2-3--|
D|--0-0-0-3-2-0-0-1--| 8x
pm:   * *       *


d|-------------|
A|-------------|
F|--9-8--------|
C|--9-8-8-7-5--|
G|--7-6-8-7-5--|
D|------6-5-3--| 4X


d|-------------------|
A|-------------------|
F|-------------------|
C|--2-----5-4-2---3--|
G|--2-2-2-5-2-2-2-3--|
D|--0-0-0-3-2-0-0-1--| 8x
pm:   * *       *


d|-------------|
A|-------------|
F|--9-8--------|
C|--9-8-8-7-5--|
G|--7-6-8-7-5--|
D|------6-5-3--| 4X


d|------------------------------------|
A|------------------------------------|
F|------------------------------------|
C|--2-----3-----2-----3----------4-5--|
G|--2-(2)-3-(2)-2-(2)-3-(2)-2222-4-5--|
D|--0-(0)-1-(0)-0-(0)-1-(0)-0000-2-3--| 4x
pm:    *     *     *     *  ****


d|-----------|
A|-----------|
F|-----------|
C|--2-2-5-4--|
G|--2-2-5-4--|
D|--0-0-3-2--| 4x


d|-------------------|
A|-------------------|
F|-------------------|
C|--2-----5-4-2---3--|
G|--2-2-2-5-2-2-2-3--|
D|--0-0-0-3-2-0-0-1--| 8x
pm:   * *       *


d|-------------|      |-----|
A|-------------|      |-----|
F|--9-8--------|      |-----|
C|--9-8-8-7-5--|      |--2--|
G|--7-6-8-7-5--|      |--2--|
D|------6-5-3--| 4X   |--0--|


d|------------------------1--|
A|---------------------------|
F|----------9-8--------------|
C|----------9-8-8-8-7-5------|
G|--2-2-2-2-7-6-8-8-7-5------|
D|--0-0-0-0-----6-6-5-3p0----| 4x
pm: * * * *


d|-------------------------|
A|-------------------------|
F|-------------------------|
C|----------2-----2-----2--|
G|--2-2-2-2-2-2-2-2-2-2-2--|
D|--0-0-0-0-0-0-0-0-0-0-0--| 4x
pm: * * * *   * *   * *


hope you enjoy it !!!
            
Submit corrections

comments powered by Disqus
↑ Back to top | Debauchery Tabs for Chainsaw Masturbation. Lyrics for acoustic guitar and electric guitar. 1 Tablatures and chords are parodies/interpretations of the original songs. You may use it for private study, scholarship, research or language learning purposes only