» » »

Death Cab For Cutie, Cath Bass tabs (ver.1)

Artists:  A B C D E F G H I J K L M N O P Q R S T U V W X Y Z # 

Cath Bass tabs (ver.1)

Death Cab For Cutie Tabs
 Rating:
4/5 (4 votes)
Cath lessons Tabs too difficult? Try these video lessons and learn fast
1
                
Standard Tuning 

Intro
0:18-0:23
G|-----------------------------------------| 
D|-----------------------------------------| 
A|----9999-777-6-6666-/14141414\-----------| 
E|-----------------------------------------|  

Verse 1
0:24-1:21
G|-----------------------------------------| 
D|--------5h7--7-9-11\---------------------| 
A|----5-55-------------454-----7-----------| 
E|-----------5-------------5--5------------|  

G|--------------------9-11-14--------------| 
D|--------5h7--7-9-11---------11--12-14\---| 
A|----5-55---------------------------------| 
E|-----------5-----------------------------|  

Repeat this five times.

Chorus 1
1:22-1:44
G|-----------------------------------------| 
D|-----------------------------------------| 
A|----9999-7777-6666-/14141414\------------| 
E|-----------------------------------------|  

G|-----------------------------------------| 
D|--------5h7---9-11\----------------------| 
A|----5-5-------------457-----7------------| 
E|-----------5------------5--5-------------|  

Repeat this two times.

Bridge 1
1:45-1:55
G|-----------------------------------------| 
D|--------5h7--7-9-11\---------------------| 
A|----5-55-------------454-----7-----------| 
E|-----------5-------------5--5------------|  

G|--------------------9-11-14--------------| 
D|--------5h7--7-9-11---------14-12-11-9-7-| 
A|----5-55---------------------------------| 
E|-----------5-----------------------------|  


Verse 2 
1:56-2:19
G|-----------------------------------------| 
D|--------5h7--7-9-11\---------------------| 
A|----5-55-------------454------7----------| 
E|-----------5-------------5---------------|  

G|--------------------9-11-14--------------| 
D|--------5h7--7-9-11---------11---9-------| 
A|----5-55---------------------------------| 
E|-----------5-----------------------------|  

Repeat this two times.


Bridge 2
2:20-2:43
G|-----------------------------------------| 
D|-----------------------------------------| 
A|---555/12121212--------------------------| 
E|-----------------------------------------|  

Repeat this eight times. 

Chorus 2
2:44-3:06
G|-----------------------------------------| 
D|-----------------------------------------| 
A|----9999-7777-6666-/14141414\------------| 
E|-----------------------------------------|  

G|-----------------------------------------| 
D|--------5h7---9-11\----------------------| 
A|----5-5-------------457-----7------------| 
E|-----------5------------5--5-------------|  

Repeat this two times.

3:07-3:17
G|----------------------------------------------------------| 
D|----------------------------------------------------------| 
A|9999-777-6-66666666-55554444/-14-14-1414-1414-1414-1414\--| 
E|----------------------------------------------------------| 

Outro
3:18-3:49(end)
G|-----------------------------------------| 
D|-----------------------------------------| 
A|----9999-7777-6666-/14141414\------------| 
E|-----------------------------------------|  

G|-----------------------------------------| 
D|--------5h7---9-11\----------------------| 
A|----5-5-------------457-----7------------| 
E|-----------5------------5--5-------------|  

G|-----------------------------------------| 
D|-----------------------------------------| 
A|----9999-7777-6666-/14141414\------------| 
E|-----------------------------------------|  

G|-----------------------------------------| 
D|--------5h7---9-11-----------------------| 
A|----5-5------------9-11-14-9-7-6-4-2-----| 
E|-----------5-----------------------------|  

G|-----------------------------------------| 
D|-----------------------------------------| 
A|----9999-7777-6--------------------------| 
E|-----------------------------------------| 

Hold the last note till the end of the song. 

This is how i play it. This is my first tab so comments are welcome.
            
Submit corrections

comments powered by Disqus
↑ Back to top | Death Cab For Cutie Bass for Cath. Lyrics for acoustic guitar and electric guitar. 1 Tablatures and chords are parodies/interpretations of the original songs. You may use it for private study, scholarship, research or language learning purposes only