>
 >
This Curse Of Days

This Curse Of Days Guitar Tabs

Death By Stereo - This Curse Of Days chords, tabs, tablatures, lyrics

Guitar lessons | Add/correct | Request | Top 50 tabs Artists:  A B C D E F G H I J K L M N O P Q R S T U V W X Y Z 0-9

This Curse Of Days Guitar Tabs – Death By Stereo

CD, Sheet music, Poster

Do you like This Curse Of Days? Share with your friends now
Tabs
Death By Stereo This Curse of Days

I know the solo progression is a little different but i think it sounds better :)

This are all main parts of the song and it goes as follows:

Intro->Bridge->Riff1->Riff2->Chorus->Riff1->Riff2->Chorus->SoloBridge->Solo->Riff3

Guitar

Intro.- Repeat twice before getting to bridge
|------------------------------------------------------------------------------------------------|
|------------------------------------------------------------------------------------------------|
|------------------------------------------------------------------------------------------------|
|-7-----7--------7-----7-----7--------7-----------------7--------7-----------------7--------7----|
|-------------10----10-------------10----10-7-----------------10----10-7-----------------10----10|
|------------------------------------------------------------------------------------------------|

|------------------------------------------------------------------------------------------------|
|------------------------------------------------------------------------------------------------|
|------------------------------------------------------------------------------------------------|
|-------------7--------7-----------------7--------7-----------------7--------7-------------------|
|-8-----------------10----10-8-----------------10----10-10----------------10----10---------------|
|------------------------------------------------------------------------------------------------|

Bridge
|------------------------------------------------------------------------------------------------|
|------------------------------------------------------------------------------------------------|
|----------7-----9--7----------------------------------------------------------------------------|
|-7--9--10-------------7-------------------------------------------------------------------------|
|------------------------------------------------------------------------------------------------|
|------------------------------------------------------------------------------------------------|

Riff 1
|------------------------------------------------------------------------------------------------|
|-------------------------------------------10---------------------------------------------------|
|----9-----10----12----7-----9-----10-9--10-------------9-----10----12----7-----9-----9--7--4----|
|-7-----7-----7-----7-----7-----7--------------------7-----7-----7-----7-----7-----7-------------|
|------------------------------------------------------------------------------------------------|
|------------------------------------------------------------------------------------------------|

|----------8-----7-----5-------------------------------------------------------------------------|
|----------------------------8-----6-----6--5----------------------------------------------------|
|-5-----5-----5-----5-----5-----5-----5--------7-----------5-----5--7----------------------------|
|-------------------------------------------------3-----3--------------------------5-----5--7----|
|------------------------------------------------------------------------------------------------|
|-------------------------------------------------------------------------5-----5----------------|

Riff 2
|------------------------------------------------------------------------------------------------|
|------------------------------------------------------------------------------------------------|
|------------------------------------------------------------------------------------------------|
|------------------------------------------------------------------------------------------------|
|-7--0--7--0--7--0--7--0--7--0--7--0--7--0--7--0--5--0--5--0--5--0--5--0--5--0--5--0--5--0--5--0-|
|------------------------------------------------------------------------------------------------|

|------------------------------------------------------------------------------------------------|
|------------------------------------------------------------------------------------------------|
|------------------------------------------------------------------------------------------------|
|------------------------------------------------------------------------------------------------|
|-3--0--3--0--3--0--3--0--3--0--3--0--3--0--3--0--2--0--2--0--2--0--2--0--2--0--2--0--2--0--2--0-|
|------------------------------------------------------------------------------------------------|

|------------------------------------------------------------------------------------------------|
|------------------------------------------------------------------------------------------------|
|------------------------------------------------------------------------------------------------|
|------------------------------------------------------------------------------------------------|
|-7--0--7--0--7--0--7--0--7--0--7--0--7--0--7--0--5--0--5--0--5--0--5--0--5--0--5--0--5--0--5--0-|
|------------------------------------------------------------------------------------------------|

|------------------------------------------------------------------------------------------------|
|------------------------------------------------------------------------------------------------|
|------------------------------------------------------------------------------------------------|
|------------------------------------------------------------------------------------------------|
|-3--0--3--0--3--0--3--0--3--0--3--0--3--0--3--0--2--0--2--0--2--0--2--0--2--0--2--0--2--0--2----|
|------------------------------------------------------------------------------------------------|

Chorus
|------------------------------------------------------------------------------------------------|
|------------------------------------------------------------------------------------------------|
|------------------------------------------------------------------------------------------------|
|-------------------------5--------5-----5--5--5-------------------------------------------------|
|-7--------7-----7--7--7--3--------3-----3--3--3--6--------6-----6--6--6--6--6--6----------------|
|-7--------7-----7--7--7--------------------------6--------6-----6--6--6--6--6--6----------------|

|------------------------------------------------------------------------------------------------|
|------------------------------------------------------------------------------------------------|
|------------------------------------------------------------------------------------------------|
|-------------------------------------------------7--------7-----7--7--7--7--7--7----------------|
|-7--------7-----7--7--7--3--------3-----3--3--3--5--------5-----5--5--5--5--5--5----------------|
|-7--------7-----7--7--7--3--------3-----3--3--3-------------------------------------------------|

Solo bridge
|------------------------------------------------------------------------------------------------|
|------------------------------------------------------------------------------------------------|
|----------------------11----10-------------9--10-9--7-------------------------------------------|
|-7-----------------------------------------------------------9--10-9-----------7----------------|
|------------------------------------------------------------------------------------------------|
|------------------------------------------------------------------------------------------------|

|------------------------------------------------------------------------------------------------|
|------------------------------------------------------------------------------------------------|
|----11----10-------------9--10-9--7-------------------------------------------------------------|
|-------------------------------------------9--10-9----------------------------------------------|
|------------------------------------------------------------------------------------------------|
|------------------------------------------------------------------------------------------------|

Solo.- this is one of the two guitars, they are played in thirds so to find the other guitar
just shift this 3 notes down
|-------------------------------------------------------------------------------13-14----16-14---|
|-------14-13-13-14-14----------14-13-13-14-14----------14-13-13-14-14----14-16------------------|
|-15-------------------13----------------------13----------------------------------------------15|
|------------------------------------------------------------------------------------------------|
|------------------------------------------------------------------------------------------------|
|------------------------------------------------------------------------------------------------|

|----------------------------------------------------------------------------13-14----16-14------|
|----14-13-13-14-14----------14-13-13-14-14----------14-13-13-14-14----14-16----------------13---|
|-------------------13----------------------13---------------------------------------------------|
|------------------------------------------------------------------------------------------------|
|------------------------------------------------------------------------------------------------|
|------------------------------------------------------------------------------------------------|

this is plain Doric progression with some spice up hehe
|-------15-------------------------------------------------------13-14-16-18-------14-16----13---|
|-------------------------------------------------------13-14-16---------------------------------|
|-------------------------------------12-13-15-12-13-15------------------------------------------|
|----------------------------11-13-15------------------------------------------------------------|
|-------------------11-13-15---------------------------------------------------------------------|
|------------------------------------------------------------------------------------------------|

|----18-16-14-13----14----13----------18----16-18----18-20-22-------24----22-20------------------|
|----------------------------16------------------------------------------------------------------|
|------------------------------------------------------------------------------------------------|
|------------------------------------------------------------------------------------------------|
|------------------------------------------------------------------------------------------------|
|------------------------------------------------------------------------------------------------|

this is actually done with hammer on's and pull offs just figure it out not hard pick 
where the arrow shows only
  |     |        |  |     and so on...
  V     V        V  V
|-------7--9--7-----------7--9--7-----------7--9--7-----------7--9--7----------------------------|
|-7--9-----------9--7--9-----------9--7--9-----------9--7--9-----------9--7----------------------|
|------------------------------------------------------------------------------------------------|
|------------------------------------------------------------------------------------------------|
|------------------------------------------------------------------------------------------------|
|------------------------------------------------------------------------------------------------|

this part is done with some bending just add some and will sound nice :)
|-------7----------------------------------------------------------------------------------------|
|-7--------10-7-----7-----------7----------------------------------------------------------------|
|----------------9-----------7-----------7-------------------------------------------------------|
|-------------------------------------------9----------------------------------------------------|
|------------------------------------------------------------------------------------------------|
|------------------------------------------------------------------------------------------------|


This can be done like this or with taping, i personally use taping, just replace everything
on the first string to 20 on second string for the taping
|-16----------------18----------------16----------------18---------------------------------------|
|----------18-16-14----------18-16-14----------18-16-14----------18-16-14------------------------|
|------------------------------------------------------------------------------------------------|
|------------------------------------------------------------------------------------------------|
|------------------------------------------------------------------------------------------------|
|------------------------------------------------------------------------------------------------|

Again Doric but backwards
|-16-14-13---------------------------------------------------------------------------------------|
|----------16-14-13------------------------------------------------------------------------------|
|-------------------15-13-12---------------------------------------------------------------------|
|----------------------------15-13-11------------------------------------------------------------|
|-------------------------------------15-13-11---------------------------------------------------|
|----------------------------------------------16-15-13------------------------------------------|

Riff3.- this part is as the beginning just with the end changed
|------------------------------------------------------------------------------------------------|
|------------------------------------------------------------------------------------------------|
|------------------------------------------------------------------------------------------------|
|-------------------------5--------5-----5--5--5-------------------------------------------------|
|-7--------7-----7--7--7--3--------3-----3--3--3--6--------6-----6--6--6--6--6--6----------------|
|-7--------7-----7--7--7--------------------------6--------6-----6--6--6--6--6--6----------------|

|------------------------------------------------------------------------------------------------|
|------------------------------------------------------------------------------------------------|
|------------------------------------------------------------------------------------------------|
|-------------------------------------------------7--------7-----7--7--7--7--7--7----------------|
|-7--------7-----7--7--7--3--------3-----3--3--3--5--------5-----5--5--5--5--5--5----------------|
|-7--------7-----7--7--7--3--------3-----3--3--3-------------------------------------------------|

|------------------------------------------------------------------------------------------------|
|------------------------------------------------------------------------------------------------|
|------------------------------------------------------------------------------------------------|
|-------------------------5--------5-----5--5--5-------------------------------------------------|
|-7--------7-----7--7--7--3--------3-----3--3--3--6--------6-----6--6--6--6--6--6----------------|
|-7--------7-----7--7--7--------------------------6--------6-----6--6--6--6--6--6----------------|

|------------------------------------------------------------------------------------------------|
|------------------------------------------------------------------------------------------------|
|------------------------------------------------------------------------------------------------|
|------------------------------------------------------------------------------------------------|
|-7--------7-----7--7--7--3--------3-----3--3--3--5--------5-----5--5--5-------------------------|
|-7--------7-----7--7--7--3--------3-----3--3--3--5--------5-----5--5--5-------------------------|

|------------------------------------------------------------------|
|------------------------------------------------------------------|
|------------------------------------------------------------------|
|------------------------------------------------------------------|
|-2--------2-----2--2--2-----2--2--------2-----2--2--2-----2--2--7-|
|-2--------2-----2--2--2-----2--2--------2-----2--2--2-----2--2--7-|





Comments


Popular Death By Stereo tabs & chords
Death For Life Bass Tabs
Holding 60 Dollars On A Burning Bridge Bass Tabs
Death For Life Tabs
Don't Piss On My Neck And Tell Me It's Raining Tabs
Entombed We Collide Tabs
Fooled By Your Smile Intro Tabs
Forever And A Day Intro Tabs
Getting It Off My Chest Tabs
Looking Out For #1 Tabs
Wasted Word Intro Tabs


Song lyrics



↑ Back to top | Tablatures and chords are parodies/interpretations of the original songs. You may use it for private study, scholarship, research or language learning purposes only
© 2014 AZChords.com Contact us | Privacy policy | DMCA | Add/correct tabs | Request tabs | Top 50 tabs