» » »

Death By Stereo, Sing Along With The Patriotic Punks Bass tabs (ver.1)

Artists:  A B C D E F G H I J K L M N O P Q R S T U V W X Y Z # 

Sing Along With The Patriotic Punks Bass tabs (ver.1)

Death By Stereo Tabs
 Rating:
4/5 (4 votes)
Sing Along With The Patriotic Punks lessons Tabs too difficult? Try these video lessons and learn fast
1
                death by stereo - sing along with the patriotic punks

Normal tuning 

Intro/Verse 

-|-666-888-777-666-4/6\4-|-x8------------------------------------------------- 
-|-666-666-555-444-2/4\2-|---------------------------------------------------- 
-|-444-------------------|---------------------------------------------------- 

Verse Break 
-|------------------------|---------------------------------------------- 
-|-7-77--7-77--7-77--7-77-|---------------------------------------------- 
-|------------------------|---------------------------------------------- 

Verse x4 

Open wide..... 
-|-------------------------------|-------------------------------------------- 
-|-------------------------------|-x4----------------------------------------- 
-|-----(6)--(5)-x-{4}-x-{2}h4p2-|-------------------------------------------- 
-|-4----------------------------|-------------------------------------------- 

Prechorus 

-|-------------------------------|-------------------------------------------- 
-|-------------------------------|-------------------------------------------- 
-|--7-77--7-77--10-1010--10-1010-|---------------------------------------- 
-|-------------------------------|-------------------------------------------- 

-|-------------------------------------------------------------------------|-- 
-|-------------------------------------------------------------------------|-- 
-|-------------------------------------------------------------------------|-- 
-|-4-44--------------4-44-----0-00-555-4-44--------------4-44-----0-00-333-|-- 
|^^^| 


Lead into Bridge 
-|---------|------------------------------------------------------------------ 
-|---------|------------------------------------------------------------------ 
-|---------|------------------------------------------------------------------ 
-|-6-------|x1----------------------------------------------------------------- 
-|-6-------|------------------------------------------------------------------ 
-|-4-------|------------------------------------------------------------------ 


Bridge 
------------------ 
------------------ 
--------(6)-(2)--- 
---(4)------------(2) 

Bridge 2 
-|----------------------|----------------------------------------------------- 
-|----------------------|----------------------------------------------------- 
-|----------------------|----------------------------------------------------- 
-|-4-4444-4-4444-<4>----|----------------------------------------------------- 
pm .... .... 

Bridge 2 (pt.1) 
-|-----------------|---------------------------------------------------------- 
-|-----------------|---------------------------------------------------------- 
-|-----------------|---------------------------------------------------------- 
-|-----------------|x4--------------------------------------------------------- 
-|-4-4444-4-4444-4-|---------------------------------------------------------- 

Bridge 2 (pt.2) 
-|--------------------------------------------------------------------------|- 
-|--------------------------------------------------------------------------|- 
-|--------------------------------------------------------------------------|- 
-|--------------------------------------------------------------------------|- 
-|-4-4444-4-4444-4----4-4444-4-4444-4----4-4444-4-4444-4----4-4444-4-4444-4-|- 



Verse x4 

Outro 
-|---------------|------------------------------------------------------------ 
-|---------------|------------------------------------------------------------ 
-|-6-6-5-4-2/4\4-|------------------------------------------------------------ 
-|-4-------------|------------------------------------------------------------ 
            
Submit corrections

comments powered by Disqus
↑ Back to top | Death By Stereo Bass for Sing Along With The Patriotic Punks. Lyrics for acoustic guitar and electric guitar. 1 Tablatures and chords are parodies/interpretations of the original songs. You may use it for private study, scholarship, research or language learning purposes only