>
 >
Entombed We Collide

Entombed We Collide Guitar Tabs

Death By Stereo - Entombed We Collide chords, tabs, tablatures, lyrics

Guitar lessons | Add/correct | Request | Top 50 tabs Artists:  A B C D E F G H I J K L M N O P Q R S T U V W X Y Z 0-9

Entombed We Collide Guitar Tabs – Death By Stereo

CD, Sheet music, Poster

Do you like Entombed We Collide? Share with your friends now
Tabs
tuning: Db Ab Db Gb Bb Eb (half a step down then drop first string to C sharp)

Intro
             x 7
Eb:------|---------|
Bb:------|---------|
Gb:------|---------|
Db:-7----|---------|
Ab:-5----|---------|
Db:-0-0-0|00-3-0-0-|

Verse Guitar one
Eb:-----------------------------------|
Bb:--- this bit repeats in between ---|
Gb:------ guitar two of the verse ----|
Db:-----------------------------------|
Ab:-----------------------------------|
Db:----0-0-3-000-0-0-3-000--0-0-3-000-|

Verse guitar two
Eb:-----|-----|-----|-----|
Bb:-----|-----|-----|-----| guitar 2 and alternate
Gb:-----|-----|-----|-----| 
Db:-5-7-|-----|-----|-----|
Ab:-3-5-|-5-5-|-5-6-|-3-3-|
Db:-----|-5-5-|-5-6-|-3-3-|

Pre-chorus (no rythem inc. for chords)
Eb:-------------------------------|
Bb:-------------------------------|
Gb:-3--------------------------6--|
Db:-3--3-----3--3--3-3-3-333-3-6--|
Ab:-1--3--11--11-11----------3-4--|
Db:----3---------------------3----|

Chorus                               1st time     2nd time
Eb:--5-555-5-5-5-555-5-5-5-555-5-5-|-5-xx-8-888-|---------|
Bb:--6-666-5-5-6-666-5-5-6-666-5-5-|-6-xx-7-777-|---------|
Gb:--7-777-7-7-7-777-7-7-7-777-7-7-|-7-xx-7-777-|--3--5---|
Db:--7---------7---------7---------|------------|--3--5---|
Ab:--5---------5---------5---------|------------|--1--3---|
Db:--------------------------------|------------|---------|

Verse   NB second guitar misses out first two chords at the start
Pre-chorus
Chorus

Harmonised interlude part 1
Eb:--------------------------|
Bb:-10-8---------------------|
Gb:------10-9~---------------|
Db:-----------10-9-7-5-7-9~--|
Ab:--------------------------|
Db:--------------------------|

part before bridge
Eb:------5-5-5-------5---5-5-|
Bb:------5-6-6-------6-8-5-5-|
Gb:----7-7-7-7-------7-7-7-7-|  x 4
Db:----7-7-----------7-7-----|
Ab:----5-------------5-------|
Db:0000--------3-000---------|

Bridge
Eb:------------------------------------|
Bb:------------------------------------|
Gb:----+---------+---------+--------+--| x 2
Db:7-----------------------------3----5|
Ab:5---------5---------6---------1----3|
Db:-000-0030-5-00-0030-6-00-0030--00-0-|

Other part (not too sure on this one)
Eb:--6-----6-----6-----6----4----------|
Bb:--6--6--6--6--6--6--6--6-5----------|
Gb:--7--5--7--5--7--5--7--5-6----------|
Db:-----7-----7-----7-----7------------|
Ab:------------------------------------|
Db:------------------------------------|
                            ^ second guitar fades in here

Chorus

outro
Eb:--------------------|
Bb:--------------------|
Gb:--------------------|
Db:-----------------0--|
Ab:-5------36---353-0--|
Db:-5-5555536-+-353-0--|


key
~ interlude vibrato is quick 
+ indicates a slightly longer pause

for any more death by stereo requests email


i'll reply when i can bt i'm in uni now and may  be delayed with a response

regards lank xx





Comments


Popular Death By Stereo tabs & chords
Death For Life Bass Tabs
Plague Bass Tabs
Sing Along With The Patriotic Punks Bass Tabs
These Are A Few Of My Favorite Things Bass Tabs
Don't Piss On My Neck And Tell Me It's Raining Tabs
Forever And A Day Intro Tabs
Looking Out For #1 Tabs
No Shirt No Shoes No Salvation (Solo) Tabs
Wasted Word Intro Tabs
Wasted Words Intro Tabs


Song lyrics



↑ Back to top | Tablatures and chords are parodies/interpretations of the original songs. You may use it for private study, scholarship, research or language learning purposes only
© 2014 AZChords.com Contact us | Privacy policy | DMCA | Add/correct tabs | Request tabs | Top 50 tabs