» » »

Death For Life Tabs (ver.1)

Artists:  A B C D E F G H I J K L M N O P Q R S T U V W X Y Z # 

Death For Life Tabs (ver.1)

Death By Stereo
Rating:
0/5 (0 votes)

Hard to play? Try these video lessons and learn fast.
                Death For Life by Death By Stereo

Tune down a half step.

Intro     Riff 2a                                          Riff 2b           Fill 1
|--------|------------------------------------------------|------------------|-------------|
|--------|------------------------------------------------|---------8-7------|-------------|
|-9-9-9--|-9--9-9---------------7-7-7-7-7-5-5-5-5---------|-7h9p7-------7----|-9-9-9--9-9--|
|-9-9-9--|-9--9-9-5-7-7-5-2-2-2-7-7-7-7-7-5-5-5-5-7-7-7-7-|-------9-------9--|-9-9-9--9-9--|
|-7-7-7--|-7--7-7-5-7-7-5-2-2-2-5-5-5-5-5-3-3-3-3-7-7-7-7-|------------------|-7-7-7--7-7--|
|-7-7-7--|-7--7-7-3-5-5-3-0-0-0-5-5-5-5-5-3-3-3-3-5-5-5-5-|------------------|-7-7-7--7-7--|

Riff 3a                        Riff 3b
|-----------------------------|-----------------------------|
|-----------------------------|-----------------------------|
|-9-9----------------5-7-7--7-|-5-5---------5-7-7-----------|
|-9-9--5-7-7--5-2-2--5-7-7--7-|-5-5--5-7-7--5-7-7--7-9-9--9-|
|-7-7--5-7-7--5-2-2--3-5-5--5-|-3-3--5-7-7--3-5-5--7-9-9--9-|
|-7-7--3-5-5--3-0-0--3-5-5--5-|-3-3--3-5-5--3-5-5--5-7-7--7-|

Riff 4 guitar 1
|--------------------------------5---7---|
|--------------------------------5---7---|
|-x-x-9-x-9/12-7--x-x-9-x-9/12-7-7---8---|
|--------------------------------7---9---|
|--------------------------------5---9---|
|--------------------------------5---7---|

Riff 4 guitar 2
|--------------------------------5---7---|
|-x-x-8-x-8/12-7--x-x-8-x-8/12-7-5---7---|
|--------------------------------7---8---|
|--------------------------------7---9---|
|--------------------------------5---9---|
|--------------------------------5---7---|

Solo
|---------------------5-5h7-5----------5h7-5--------5h7-5------------5-5h7-5-------|
|-7-8-5---7-8-7---7-8---------8-7h8-5--------7-8-5--------7-8-7--7-8---------8-7h8-|
|----------------------------------------------------------------------------------|
|----------------------------------------------------------------------------------|
|----------------------------------------------------------------------------------|
|----------------------------------------------------------------------------------|
Then after that it's basically the same thing harmonizing with another guitar.

Fill2
|------------------|
|------------------|
|------------------|
|-9999997777775555-|
|-9999997777775555-|
|-7777775555553333-|
pm................

Song structure:
Intro x8
Riff 2a & b x3
Fill 1 x2
Riff 3a & b x2
Riff 3b x2
Riff 2 x2
Riff 4 x2
Riff 3 x1
Riff 3b x2
Riff 3 x1
Riff 2 x2
Riff 4
Intro x1
Solo
Fill 1 x2, Riff 2b
Fill 1 x2, Fill 2
Fill 1 x2, Riff 2b
Fill 1 x2, Fill 2
Intro
            
Hard to play? Try these video lessons and learn fast. | Correct




comments powered by Disqus
↑ Back to top | Tablatures and chords are parodies/interpretations of the original songs. You may use it for private study, scholarship, research or language learning purposes only