» » »

Veil Of Deception Tabs (ver.1)

Artists:  A B C D E F G H I J K L M N O P Q R S T U V W X Y Z # 

Veil Of Deception Tabs (ver.1)

Death Angel
Rating:
4/5 (1 vote)

Tabs too difficult? Try these video lessons and learn fast.
                
e|---------------------------------|-----------------------------------------|
B|---------------------------------|-----------------------------------------|
G|---------------------------------|-----------------------------------------|
D|-----4-4-4-4-5-5-5-5-5-4-2-----4-|-4-4-5-5-5-5-5-4-2-------------0---------|
A|---0-2-2-2-2-3-3-3-3-3-2-0---0-2-|-2-2-3-3-3-3-3-2-0-5-5---0h2p0---2-2-----|
E|-3-------------------------3-----|-------------------3-3--3--------0-0-----|

   Affectaion was an early sign
e|---------------------------------|-----------------------------------------|
B|---------------------------------|-----------------------------------------|
G|---------------------------------|-----------------------------------------|
D|-----4-4-4-4-5-5-5-5-5-4-------4-|-4-4-5-5-5-5-5-4-------------------------|
A|---0-2-2-2-2-3-3-3-3-3-2-0---0-2-|-2-2-3-3-3-3-3-2-0-5-5-5-----------------|
E|-3-------------------------3-----|-------------------3-3-3-----------------|

   Apprehension made her cold
e|---------------------------------|-----------------------------------------|
B|---------------------------------|-----------------------------------------|
G|---------------------------------|---------------------2-2-----------------|
D|-----4-4-4-4-5-5-5-5-5-4-----4-4-|-5-4-----4-4-5-4-----2-2-5-5-2-2-2-2-----|
A|---0-2-2-2-2-3-3-3-3-3-2-0---2-2-|-3-2-0---2-2-3-2-0---0-0-5-5-2-2-2-2-----|
E|-3-------------------------3-----|-------3-----------3-----3-3-0-0-0-0-----|
  
   Surface anger was a thin disguise
e|---------------------------------|-----------------------------------------|
B|---------------------------------|-----------------------------------------|
G|-----4-4-4-4-5-5-5-5-5-4-------4-|-4-4-5-5-5-5-5-4-------------------------|
D|---0-2-2-2-2-3-3-3-3-3-2-0---0-2-|-2-2-3-3-3-3-3-2-0-5-5-5-----------------|
A|-3-------------------------3-----|-------------------3-3-3-----------------|
E|---------------------------------|-----------------------------------------|

  Degradation was a grind
e|---------------------------------|-----------------------------------------|
B|---------------------------------|-----------------------------------------|
G|---------------------------------|---------------------2-2-----------------|
D|-----4-4-4-4-5-5-5-5-5-4-----4-4-|-5-4-----4-4-5-4-----2-2-5-5-2-2-2-2-----|
A|---0-2-2-2-2-3-3-3-3-3-2-0---2-2-|-3-2-0---2-2-3-2-0---0-0-5-5-2-2-2-2-----|
E|-3-------------------------3-----|-------3-----------3-----3-3-0-0-0-0-----|

  And so the story goes
e|-----------------------------|---------------------------------------------|
B|-----------------------------|---------------------------------------------|
G|-----4-4-4-4-5-5-5-5-5-4-----|-4-4-4-4-5-5-5-5-4-----4-444-2-2---2---------|
D|-----2-2-2-2-3-3-3-3-3-2-0---|-2-2-2-2-3-3-3-3-2-0---2-222-0-0-5-0-4-4-4-4-|
A|---------------------------3-|---------------------3-----------3---4-4-4-4-|
E|-----------------------------|-------------------------------------2-2-2-2-|

                Over solo 2x      After solo, repeat the above as necessary
e|---------------|-----------------|-----------------------------------------|
B|---------------|-----------------|-----------------------------------------|
G|---------------|-2-2-----2-2-5-4-|-----------------------------------------|
D|---------------|-2-2-3-5-2-2-5-4-|-----------------------------------------|
A|-222-2-2h3p2p0-|-0-0-3-5-0-0-3-2-|-----------------------------------------|
E|---------------|-----1-3---------|-----------------------------------------|

  A-minor chord at the very end of the tune 
e|---------------0-----0-------------------------|
B|---------------1p0----0------------------------|
G|---------------2-------2-----------------------|
D|---------------2--------2----------------------|
A|-222-2-2h3p2p0-0---------0---------------------|
E|-----------------------------------------------|
            
Tabs too difficult? Try these video lessons and learn fast.




comments powered by Disqus
↑ Back to top | Tablatures and chords are parodies/interpretations of the original songs. You may use it for private study, scholarship, research or language learning purposes only