>
 >
Ultra Violence

Ultra Violence Guitar Tabs

Death Angel - Ultra Violence chords, tabs, tablatures, lyrics

Guitar lessons | Add/correct | Request | Top 50 tabs Artists:  A B C D E F G H I J K L M N O P Q R S T U V W X Y Z 0-9

Ultra Violence Guitar Tabs – Death Angel

CD, Sheet music, Poster

Do you like Ultra Violence? Share with your friends now
Tabs
Band:  Death Angel

Copyright (c)  (Under One Flag) (1987)
Version 1.0 - (14/08/05)



.  - palm mute           /  - slide up to
\  - slide down to       ~  - vibrato
h  - hammer on           b  - Bend
p  - pull off            Suffixes for bend
t  - tap                 f  - full bend    h - half bend
ph - pinched harmonic    q  - quarter bend t - tap bend
*  - see comment         ^  - Hold bend    r release bend
x  - Stuccatto           ~  - vibrato bend
,  - slight palm mute    () - ghost note, sustained note
"  - tremolo note        <> - Trill

Tunning E A D G B E
 

 Intro

                h               h 
E-0-0-7p0-8p0-5-7p0-3-0-0-5p0-2-3--|
B----------------------------------|
G----------------------------------|
D----------------------------------|
A----------------------------------|
E----------------------------------| Rpt 7 X

 Guitar 2 Enters 5th time
E-------------------------------------------------------------------|
B-------------------------------------------------------------------|
G-------------------------------------------------------------------|
D-2--------------------------(2)-------------------------2----------|
A-2--------------------------(2)-------------------------2----------|
E-0--------------------------(0)-------------------------0----------|

  [---------------PM-----------------]
                h               h 
E-0-0-7p0-8p0-5-7p0-3-0-0-5p0-2-3-0-0-|
B-------------------------------------|
G-------------------------------------|
D-------------------------------------|
A-------------------------------------|
E-------------------------------------|

  Guitar 1
  [-------------PM---------------]
            h               h 
E[-7p0-8p0-5-7p0-3-0-0-5p0-2-3-0-0--|
B[----------------------------------|
G[----------------------------------|
D[----------------------------------|
A[----------------------------------|
E[----------------------------------|
 [Guitar 2
 [[-------------PM---------------]
E[----------------------------------|
B[----------------------------------|
G[----------------------------------|
D[----------------------------------|
A[-9---10--7/9---5-----7---4/5------|
E[-7p0-8p0-5/7p0-3-0-0-5p0-2/3-0-0--| Rpt 3

  Guitar 1
  [----------PM-----------]phph
             h               h 
E[-7p0-8p0-5-7p0-3-0-0-5p0-2-3-0-0--|
B[----------------------------------|
G[----------------------------------|
D[----------------------------------|
A[----------------------------------|
E[----------------------------------|
 [Guitar 2
 [[-------------PM---------------]
E[----------------------------------|
B[----------------------------------|
G[----------------------------------|
D[----------------------------------|
A[-9---10--7/9---5-----7---4/5------|
E[-7p0-8p0-5/7p0-3-0-0-5p0-2/3-0-0--|

  Guitar 1
  [-------------PM---------------]
             h               h 
E[----------------------------------|
B[----------------------------------|
G[----------------------------------|
D[-9---10--7-9---5-----7---4/5------|
A[---7---7-----7---7-7---7-----7-7--|
E[----------------------------------|
 [Guitar 2
 [[-------------PM---------------]
E[----------------------------------|
B[----------------------------------|
G[----------------------------------|
D[----------------------------------|
A[-9---10--7/9---5-----7---4/5------|
E[-7p0-8p0-5/7p0-3-0-0-5p0-2/3-0-0--|

  Guitar 1
  [-------------PM---------------]
             h               h 
E[----------------------------------|
B[----------------------------------|
G[----------------------------------|
D[-9---10--7-9---5-----7---4/5------|
A[---7---7-----7---7-7---7-----7-7--|
E[----------------------------------|
 [Guitar 2
 [[-------------PM---------------]
E[----------------------------------|
B[----------------------------------|
G[----------------------------------|
D[----------------------------------|
A[-9---10--7/9---5-----7---4/5------|
E[-7p0-8p0-5/7p0-3-0-0-5p0-2/3-0-0--|
 [Guitar 3
 [ ph  ph ph ph          
E[----------------------------------|
B[-12--13-10-12----------------1717-|
G[----------------------------------|
D[----------------------------------|
A[----------------------------------|
E[----------------------------------|

  Guitar 1
  [-------------PM---------------]
             h               h 
E[----------------------------------|
B[----------------------------------|
G[----------------------------------|
D[-9---10--7-9---5-----7---4/5------|
A[---7---7-----7---7-7---7-----7-7--|
E[----------------------------------|
 [
 [Guitar 2
 [          
E[-19--20--1719--15----17--1415-----|
B[---17--17----17--1717--17----1717-|
G[----------------------------------|
D[----------------------------------|
A[----------------------------------|
E[----------------------------------|
 [
 [Guitar 3
E[-----------------------------0-0--|
B[----------------------------------|
G[----------------------------------|
D[----------------------------------|
A[----------------------------------|
E[----------------------------------|


  Guitar 1
  [-------------PM---------------]
             h               h 
E[----------------------------------|
B[----------------------------------|
G[----------------------------------|
D[-9---10--7-9---5-----7---4/5------|
A[---7---7-----7---7-7---7-----7-7--|
E[----------------------------------|
 [ 
 [Guitar 2
 [          
E[-19--20--1719--15----17--1415-----|
B[---17--17----17--1717--17----1717-|
G[----------------------------------|
D[----------------------------------|
A[----------------------------------|
E[----------------------------------|
 [Guitar 3
E[-7p0-8p0-5-7p0-3-0-0-5p0-2-3-0-0--|
B[----------------------------------|
G[----------------------------------|
D[----------------------------------|
A[----------------------------------|
E[----------------------------------|

  Guitar 1                                                To feedback
E[-2-3---------------------------------------------------------------|
B[-----2-3-----------------------------------------------------------|
G[---------2-3-------------------------------------------------------|
D[-------------2-3---------------------------------------------------|
A[-----------------2-3-----2---------------------(2)-----------------|
E[---------------------2-1-0---------------------(0)-----------------|
 [Guitar
E[-1415--------------------------------------------------------------|
B[-----14151011------------------------------------------------------|
G[-------------910---------------------------------------------------|
D[-----------------910-----------------------------------------------|
A[---------------------9-8-2---------------------(2)-----------------|
E[-------------------------0---------------------(0)-----------------|

 Main Riff/Verse

 [---PM---] [---PM---] [---PM---]
E------------------------------------------|
B------------------------------------------|
G------------------------------------------|
D----------7----------7----------7-7-7-7/8-|
A----------5----------5----------5-5-5-5/6-|
E-00000000---00000000---00000000-----------| Rpt

  Guitar 1
  [---PM---] [---PM---] [---PM---]
E[------------------------------------------|
B[------------------------------------------|
G[------------------------------------------|
D[----------7----------7----------7-7-7-7/8-|
A[----------5----------5----------5-5-5-5/6-|
E[-00000000---00000000---00000000-----------| 
 [Guitar 2
E[------------------------------------------|
B[------------------------------------------|
G[------------------------------------------|
D[----------7----------7----------7-7-7-7/8-|
A[----------5----------5----------5-5-5-5/6-|
E[------------------------------------------| Rpt

  Guitar 1
  [---PM---] [---PM---] [---PM---]
E[------------------------------------------|
B[------------------------------------------|
G[------------------------------------------|
D[----------7----------7----------7-7-7-7/8-|
A[----------5----------5----------5-5-5-5/6-|
E[-00000000---00000000---00000000-----------| 
 [Guitar 2
E[------------------------------------------|
B[------------------------------------------|
G[------------------------------------------|
D[----------77---------77---------7-7-7-7/8-|
A[----------55---------55---------5-5-5-5/6-|
E[------------------------------------------| Rpt

 Both guitars rpt Main Riff 4 X

  Guitar 1
  [---PM---] [---PM---] [---PM---] 
E[------------------------------------------|
B[------------------------------------------|
G[------------------------------------------|
D[------------------------------------------|
A[----------7----------7----------7-7-7-7/8-|
E[-77777777-5-77777777-5-77777777-5-5-5-5/6-|
 [Guitar 2
E[------------------------------------------|
B[------------------------------------------|
G[-99999999-7-99999999-7-99999999-7-7-7-7-8-|
D[------------------------------------------|
A[------------------------------------------|
E[------------------------------------------| Rpt

  Guitar 1
E[-1212121212121212-10-1212121212121212-10-1212121212121212-1010101011-|
B[---------------------------------------------------------------------|
G[---------------------------------------------------------------------|
D[---------------------------------------------------------------------|
A[---------------------------------------------------------------------|
E[---------------------------------------------------------------------|
 [
 [Guitar 2
E[---------------------------------------------------------------------|
B[-1010101010101010-8--1010101010101010-8--1010101010101010-8-8-8-8-9--|
G[---------------------------------------------------------------------|
D[---------------------------------------------------------------------|
A[---------------------------------------------------------------------|
E[---------------------------------------------------------------------|
                                                                Rpt

E-17-20/-|
B--------|
G--------|
D--------|
A--------|
E--------|

 Rpt Main Riff

 [---PM---] [---PM---] [---PM---]               ~~~~~~~~~~~~~~~~~~~
E-------------------------------------------------------------------|
B-------------------------------------------------------------------|
G--------------------------------------------10p9---------(9)-------|
D----------7----------7----------7-7-7-7-0-9------------------------|
A----------5----------5----------5-5-5-5----------------------------|
E-00000000---00000000---00000000------------------------------------| 

         ~~~~~~~~~~~~~~~~~~~~~~        ~~~~~~~~~~~~~~~~~~~~~
E------------------------------------------------------------|
B------------------------------------------------------------|
G-----10p9---------(9)--------------10p9---------(9)---------|
D-0-9---------------------------0-9--------------------------|
A------------------------------------------------------------|
E------------------------------------------------------------|

  Guitar 1
          ~~~~~~~~~~~~~~~~~~~~~~        
E[-----------/12----------15br\--|
B[-------------------------------|
G[-----10p9----------------------|
D[-0-9---------------------------|
A[-------------------------------|
E[-------------------------------|
 [Guitar 2
 [        ~~~~~~~~~~~~~~~~~~~~~~        
E[-------------------------------|
B[-------------------------------|
G[-----10p9---------(9)----------|
D[-0-9---------------------------|
A[-------------------------------|
E[-------------------------------|

E---------------------------------|
B---------------------------------|
G-----10p9---------(9)----------\-|
D-0-9----9---------(9)----------\-|
A--------7---------(7)----------\-|
E---------------------------------| Rpt

 Additional guitar
            ph~~~~~~~~~~~~~~~~~~
E-------------------------------|
B-------------------------------|
G-----------9---------(9)-------|
D-------------------------------|
A-------------------------------|
E-------------------------------|

E---------------------------------|
B---------------------------------|
G-----10--------------------------|
D-0-9----2---------(2)------------|
A--------2---------(2)------------|
E--------0---------(0)------------| Rpt

 Additional guitar
              h
E-------------------------------|
B-------------------------------|
G-------------------------------|
D-------------------------------|
A-----------5-7p-trill----------|
E-------------------------------|

E-----------<5>-----------------|
B--------------<5>----<7>-------|
G-----------------<5>-<7>-------|
D-------------------------------|
A-------------------------------|
E-------------------------------|


  [-PM]
E-----------------|
B-----------------|
G-----------------|
D-7777-10\9-(9)\5-|
A-5555-8-\7-(7)\3-|
E-----------------| Rpt 3 X

  [-PM]
E---------------|
B---------------|
G---------------|
D-7777-10\9-(9)-|
A-5555-8-\7-(7)-|
E---------------| Rpt 7 X

  [-PM]
E-------------------|
B-------------------|
G-------------------|
D-7777-10\9-(9)-\5\-|
A-5555-8-\7-(7)-\3\-|
E-------------------|

  Guitar 1
  [-PM-] [-PM-] [-PM-] [-PM-] [-PM-] [-PM-]
E[--------------------------------------------------------|
B[--------------------------------------------------------|
G[--------------------------------------------------------|
D[------5------7------5------8------5------7----5-4-2---2-|
A[-0000-3-0000-5-0000-3-0000-6-0000-3-0000-5-00-3-2-0-5-0-|
E[----------------------------------------------------3---|
 [Guitar 2
E[--------------------------------------------------------|
B[--------------------------------------------------------|
G[--------------------------------------------------------|
D[----------------------------------------------5-4-2---2-|
A[----------------------------------------------3-2-0-5-0-|
E[----------------------------------------------------3---|

 Riff A

 [-PM-] [-PM-] [-PM-] [-PM-] [-PM-] [-PM-]
E--------------------------------------------------------|
B--------------------------------------------------------|
G--------------------------------------------------------|
D------5------7------5------8------5------7----5-4-2---2-|
A-0000-3-0000-5-0000-3-0000-6-0000-3-0000-5-00-3-2-0-5-0-|
E----------------------------------------------------3---|Rpt 2 X

 Rpt 8 X for guitar solo backing
 Rpt Riff A 2 X

 Chorus

 ph [PM]       [PM]     ph     [----PM---]
E------------------------------------------|
B------------------------------------------|
G------------------------------------------|
D-7-----5\4-------4------7-----5\4---7\5\4-|
A---0-2-3\2-0-5-0-2--0-0---0-2-3\2-0-5\3\2-|
E-------------3----------------------------|

  [PM]ph [PM]       [PM]     ph     [----PM---]
E----------------------------------------------|
B----------------------------------------------|
G----------------------------------------------|
D-----7-----5\4-------4------7-----5\4---7\5\4-|
A-0-0---0-2-3\2-0-5-0-2--0-0---0-2-3\2-0-5\3\2-|
E-----------------3----------------------------| Rpt 3 X

 Additional guitar
      ~~~~~~~~~            
E-17-15fb-------|
B---------------|
G---------------|
D---------------|
A---------------|
E---------------|

  Guitar 1
E[------------------------------|
B[------------------------------|
G[------------------------------|
D[-2-----------(2)---------7\---|
A[-0-----------(0)--------------|
E[------------------------------|
 [
 [Guitar 2
E[-------------------------<5>\-|
B[------------------------------|
G[------------------------------|
D[-2-----------(2)--------------|
A[-0-----------(0)--------------|
E[------------------------------|

E----------------|
B----------------|
G----------------|
D-drum fill------|
A-------------3--|
E-------------1--| Rpt 4 X

 Rpt 4 X with bass.

  Guitar 1
E[--------------------------------------------------------|
B[--------------------------------------------------------|
G[--------------------------------------------------------|
D[-10\9----------(9)-----------7----------(7)-------------|
A[-8-\7----------(7)-----------5----------(5)-------------|
E[--------------------------------------------------------|
 [Guitar 2
E[--------------------------------------------------------|
B[--------------------------------------------------------|
G[--------------------------------------------------------|
D[-----------------------------7----------(7)-------------|
A[-3--2----------(2)-----------5----------(5)-------------|
E[-1--0----------(0)--------------------------------------|

  Guitar 1        pick scrape
E[-----------------------------------------------------|
B[-----------------------------------------------------|
G[-----------------------------------------------------|
D[-9----------(9)------\-\--7----------(7)-------------|
A[-7----------(7)-------\-\-5----------(5)-------------|
E[-----------------------------------------------------|
 [Guitar 2
E[-----------------------------------------------------|
B[-----------------------------------------------------|
G[-----------------------------------------------------|
D[--------------------------7----------(7)-------------|
A[-2----------(2)-----------5----------(5)-------------|
E[-0----------(0)--------------------------------------|

 [---------PM--------]
E----------------------|
B----------------------|
G----------------------|
D----------------------|
A----------------------|
E-0000-0000-0000-0000--| Rpt 8 X

 Enters 5th time

  Guitar 1
   ~~~~~~~~~~~~~~~~~~~~~~~~~~~~~~~~~~~~~~~~~~~~~~~
E[-------------------------------------------------|
B[-10-8-10-11--10-8-10-11--10-8-10-11--10-8-10-11--|
G[-------------------------------------------------|
D[-------------------------------------------------|
A[-------------------------------------------------|
E[-------------------------------------------------|
 [Guitar 2
 [ ~~~~~~~~~~~~~~~~~~~~~~~~~~~~~~~~~~~~~~~~~~~~~~~
E[-------------------------12\1012-12--12\1012-12--|
B[-------------------------------------------------|
G[-------------------------------------------------|
D[-7--5-7--8---7--5-7--8---------------------------|
A[-------------------------------------------------|
E[-------------------------------------------------|

 [-PM-] [-PM-] [-PM-] [-PM-]
E------------------------------|
B------------------------------|
G------------------------------|
D------9------7------9------10-|
A------7------5------7------8--|
E-0000---0000---0000---0000-8--| Rpt 4 X


E-----------------------------------------------|
B-----------------------------------------------|
G-----------------------------------------------|
D------------------------------------------5----|
A-8-7-5-------8-7-5-------8-7-5----------5---5--|
E-------8-7-7-------8-7-7-------8-7-7--3--------| Rpt

 Additional guitar enters 2nd time.

E--------------------------------------------------------|
B---------------------------------------------------8----|
G-10-9-7---------10-9-7---------10-9-7------------7---7--|
D--------10-10-9--------10-10-9--------10-10-9--5--------|
A--------------------------------------------------------|
E--------------------------------------------------------|

 Rpt Chorus
            ~           ~
E--------------------------|
B--------------------------|
G--------------------------|
D--------------------------|
A-------------------6-6-5--|
E-3-333-6-6-5-3-333--------| Rpt 3 X

  Guitar 1
             ~           
E[-----------------------------|
B[-----------------------------|
G[-----------------------------|
D[-----------------------------|
A[---------------3-333-6-5-5-5-|
E[-3-333-6-5-5-----------------|
 [Guitar 2
E[-----------------------------|
B[-----------------------------|
G[-----------------------------|
D[-----------------------------|
A[-----------6-5-6-666-6-5-5---|
E[-3-333-6-5-----------------6-|



E-------------------------|
B-------------------------|
G-------------------8-7-7-|
D-5-555-8-7-7-5-555-------|
A-------------------------|
E-------------------------| Rpt 4 X
 Last time guitar 2 plays this
E-------------------------|
B-------------------------|
G-----------8-7-8-10p8\7--|
D-5-555-8-7---------------|
A-------------------------|
E-------------------------|

 Backing for 2nd guitar solo

E-------------------------|
B-------------------------|
G-------------------------|
D-------------------8\7-7-|
A-5-555-8\7-7-5-555-6\5-5-|
E-3-333-6\5-5-3-333-------| Rpt 16 X

            ~           ~
E--------------------------|
B--------------------------|
G--------------------------|
D--------------------------|
A-------------------6-6-5--|
E-3-333-6-6-5-3-333--------| Rpt 3 X

            ~           
E-----------------------|
B-----------------------|
G-----------------------|
D-----------------------|
A-----------6-5-6/8\6-5-|
E-3-333-6-5-------------| 

  Guitar 1
E[--------------------------|
B[--------------------------|
G[--------------------------|
D[--------------------------|
A[-------------------6-6-5--|
E[-3-333-6-6-5-3-333--------|
 [
 [Guitar 2 with wah
E[--------------------------|
B[--------------------------|
G[--------------------------|
D[-------------------8-8-7--|
A[-5-555-8-8-7-5-555--------|
E[--------------------------| Rpt 5 X

  Guitar 1
             ~           
E[-----------------------|
B[-----------------------|
G[-----------------------|
D[-----------------------|
A[-----------6-5-6/8\6-5-|
E[-3-333-6-5-------------|
 [Guitar 2 with wah
E[-----------------------|
B[-----------------------|
G[-----------------------|
D[-----------8-7/8-108-7-|
A[-5-555-8-7-------------|
E[-----------------------| 

            ~           ~
E--------------------------|
B--------------------------|
G--------------------------|
D--------------------------|
A-------------------6-6-5--|
E-3-333-6-6-5-3-333--------| Rpt 3 X

 Additional guitar 3rd time

            ~   ph ph ph        
E---------------------------|
B---------------------------|
G---------------------------|
D-------5-4-3---3-----------|
A-------------5---5-4-3-----|
E-----------------------6-5-| 

                     
            ~           
E-----------------------|
B-----------------------|
G-----------------------|
D-----------------------|
A-----------6-5-6/8\6-5-|
E-3-333-6-5-------------| 

 Rpt higher version of riff.


E----------------------------------------------------------|
B----------------------------------------------------------|
G----------------------------------------------------------|
D----------------------------------------------------------|
A-555-----------------------(5)----------------------------|
E-333-----------------------(3)----------------------------| Rpt 4 X
 
 Guitar on own.
 [--------------PM------------------]
E------------------------------------|
B------------------------------------|
G------------------------------------|
D------------------------------------|
A------------------------------------|
E-6666666666666666\5555555555555555/-|


 [----------------------PM--------------------------]
E----------------------------------------------------|
B----------------------------------------------------|
G----------------------------------------------------|
D----------------------------------------------------|
A------------------12121212121212121212121212121212\-|
E-6666666666666666/----------------------------------|

 [--------------PM------------------]
E------------------------------------|
B------------------------------------|
G------------------------------------|
D------------------------------------|
A-8888888888888888\7777777777777777/-|
E-6666666666666666\5555555555555555/-| Rpt

 [--------------PM------------------]
E------------------------------------|
B------------------------------------|
G------------------------------------|
D-8888888888888888\7777777777777777/-|
A-6666666666666666\5555555555555555/-|
E------------------------------------| Rpt

 [--------------PM------------------]
E------------------------------------|
B------------------------------------|
G------------------------------------|
D------------------------------------|
A-8888888888888888\7777777777777777/-|
E-6666666666666666\5555555555555555/-| Rpt

 [--------------PM------------------]
E------------------------------------|
B------------------------------------|
G------------------------------------|
D-8888888888888888\7777777777777777/-|
A-6666666666666666\5555555555555555/-|
E------------------------------------| Rpt




E-------------------------------------|
B-------------------------------------|
G-------------------------------------|
D-------------------------------------|
A----------33333333----------22222222-|
E-11111111----------11111111-00000000-| Rpt 3 X

                            [-----------------PM-----------------]
E------------------------------------------------------------------|
B------------------------------------------------------------------|
G------------------------------------------------------------------|
D------------------------------------------------------------------|
A----------33333333----------2-2-2-2-2-2-2-2-2-2-2-2-2-2-2-2-2-2-2-|
E-11111111----------11111111-0-0-0-0-0-0-0-0-0-0-0-0-0-0-0-0-0-0-0-|

 Ad lid crashes on the E5 chord and octave E chord.

 Rpt Main Riff with crashes ala first verse.

E-------------------------------------------------------------------|
B-------------------------------------------------------------------|
G-------------------------------------------------------------------|
D-------------------------------------------------------------------|
A-2------------------------(2)--------------------------------------|
E-0------------------------(0)--------------------------------------|
  Guitar 2 plays intro lead theme.

 Rpt intro

 Rpt Main Riff once to end.



END





Comments


Popular Death Angel tabs & chords
Bored Bass Tabs
A Room With A View Chords
A Room With A View 1 Tabs
Bored Tabs
God Vs. God Tabs
Mistress Of Pain Tabs
Sonic Beatdown Tabs
The Devil Incarnate Tabs
Ultra Violence Intro Tabs
Voracious Souls Tabs


Song lyrics



↑ Back to top | Tablatures and chords are parodies/interpretations of the original songs. You may use it for private study, scholarship, research or language learning purposes only
© 2014 AZChords.com Contact us | Privacy policy | DMCA | Add/correct tabs | Request tabs | Top 50 tabs