» » »

Thrown To The Wolves Tabs (ver.2)

Artists:  A B C D E F G H I J K L M N O P Q R S T U V W X Y Z # 

Thrown To The Wolves Tabs (ver.2)

Death Angel
Rating:
0/5 (0 votes)

Hard to play? Try these video lessons and learn fast.
                Thrown To The Wolves by Death Angel TAB (no solo or rythm solo srry)

Standard tune

Intro (0:00)
E|---------------------------------------------------------|
B|---------------------------------------------------------|
G|---------------------------------------------------------|
D|-9-----7-----10---9--------------------------------------|
A|-7-----5-----8----7--------------------------------------|
E|---0-0---0-0----0---0-0-0-0-0-0-0-0----------------------|

(0:45)
|-------------------------------------------------------------|
|-------------------------------------------------------------|
|-------------------------------------------------------------|
|-------------------------------------------------------------|
|-14-----12-----15-0-14---13-13-13-13-13----------------------|
|-12-0-0-10-0-0-13-0-12-0-------------------------------------|

(0:55)
|-------------------------------------------------------------|
|-------------------------------------------------------------|
|-------------------------------------------------------------|
|-9----7------10----9-----------------------------------------|
|-7----5------8-----7-----------------------------------------|
|-7----5------8-----7-----------------------------------------|


Riff 1(0:58)
|------------------------------------------------------------------|
|------------------------------------------------------------------|
|------------------------------------------------------------------|
|------------------------------------------------------------------|
|------------5-------6-5-------8--------------5-------6-5-------3--|
|-3--5-5-6-3---3-6-3-----6-5-0-6---3--5-5-6-3---3-6-3-----6-5-0-1--|

Verse (1:09)
|-----------------------------------|
|-----------------------------------|
|-----------------------------------|
|-----------------------------------|
|-----------------------------------|
|-0-0-0-0-0-0-0-0-0-0-0-0-0-0-0-0-0-|

-----------------------------------------------|
-----------------------------------------------|
-----------------------------------------------|
------------------------4-------5/4------------|
------------------4-5---2---4---3/2-------4/5--|
0-0-0-0-0-0-0---0-2-3-0---0-2-0-----0-0-0-2/3--|


Chorus(1:31)
|----------------------------------------------------------|
|----------------------------------------------------------|
|----------------------------------------------------------|
|-9-----7-----10---9---------------------------------------|x4
|-7-----5-----8----7---------------------------------------|
|---0-0---0-0----0---0-0-0--0--0-0-0--0-0-0---(gallop)-----|

|-------------------------------------------------------------|
|-------------------------------------------------------------|
|-------------------------------------------------------------|
|-9-----7-----10---9------------------------------------------|x3
|-7-----5-----8----7------------------------------------------|
|---0-0---0-0----0---0-0-0-0-0-0-0-0-0-0-0-0------------------|

|-------------------------------------------------------------|
|-------------------------------------------------------------|
|-------------------------------------------------------------|
|-9----7------10----9-----------------------------------------|
|-7----5------8-----7-----------------------------------------|
|-7----5------8-----7-----------------------------------------|


Chorus Variation (before solo)(2:44)
|-------------------------------------------------------------------|
|-------------------------------------------------------------------|
|-------------------------------------------------------------------|
|-9----7------10----9---------9----7----10---------2~---------------|
|-7----5------8-----7---------7----5----8----------2~---------------|
|-7----5------8-----7---------7----5----8----------0~---------------|

(2:55)
|------------------------------------|
|------------------------------------|
|------------------------------------|
|-5-------2---2-------10-------------|
|-5-------2---2-------8--------------|
|-3-0-0-0-0---0-0-0-0----------------|

Riff 2 (2:57)
|-----------------------------------------------|
|-----------------------------------------------|
|-----------------------------------------------|
|-----------------------------------------------|
|-0h1-------------------------------1h2---------|
|-----0-0-0-0-0-0-0-0-0-0-0-0-0-0-0-----0-0-0-0-|

---------------------------------------------------------|
---------------------------------------------------------|
---------------------------------------------------------|
---------------------------------------------------------|
-----------------------2h3-------------------------------|
-0-0-0-0-0-0-0-0-0-0-0-----0-0-0-0-0-0-0-0-0-0-0-0-0-0-0-|


|------------------------------------|
|------------------------------------|
|------------------------------------|
|-5-------2---2-------10-------------|
|-5-------2---2-------8--------------|
|-3-0-0-0-0---0-0-0-0----------------|


(no solo or solo rythm..srry cant figure that out yet)
            
Hard to play? Try these video lessons and learn fast. | Correct




comments powered by Disqus
↑ Back to top | Tablatures and chords are parodies/interpretations of the original songs. You may use it for private study, scholarship, research or language learning purposes only