>
 >
Sonic Beatdown

Sonic Beatdown Guitar Tabs

Death Angel - Sonic Beatdown chords, tabs, tablatures, lyrics

Guitar lessons | Add/correct | Request | Top 50 tabs Artists:  A B C D E F G H I J K L M N O P Q R S T U V W X Y Z 0-9

Sonic Beatdown Guitar Tabs – Death Angel

CD, Sheet music, Poster

Do you like Sonic Beatdown? Share with your friends now
Tabs
death angel
sonic beatdown

c#-g#-c#-f#-a#-d#

0:06

-------------------------------------------------------------0---|
-------------------------------------------------------------3---|
-------------------------------------------------------------2---|
-------------------------------------------------------------0---|
--3-6-5-*-0-1-3-0-3-6-5---1-1-1-1-3-6-5-*-0-1-3-*-0-1-3-*-0--0---|
--3-6-5-0-0-1-3-0-3-6-5-0-1-1-1-1-3-6-5-0-0-1-3-0-0-1-3-0-0--0---|

0:13
------------------------------------------------------------0---|
------------------------------------------------------------3---|
------------------------------------------------------------2---|
------------------------------------------------------------0---|
--3-6-5-*-0-1-3-0-3-6-5---1-1-1-1-3-6-5-*-0-1-3-*-0-1-3-*---0---|
--3-6-5-0-0-1-3-0-3-6-5-0-1-1-1-1-3-6-5-0-0-1-3-0-0-1-3-0---0---|

0:20
-------------------------------------------------------------------|
-------------------------------------------------------------------|
-------------------------------------------------------------------|
-------------------------------------------------------------------|
-***************-1--1-1-1-1-1-1-1-***************-1--1-1-1-1-1-1-1-|
-000000000000650-1--1-1-1-1-1-1-1-000000000000650-1--1-1-1-1-1-1-1-|

0:27
-------------------------------------------------------------------|
-------------------------------------------------------------------|
-------------------------------------------------------------------|
-------------------------------------------------------------------|
-*--************-1--1-1-1-1-1-1-1-***************-1--1-1-1-1-1-1-1-|
-1|-003300550065-1--1-1-1-1-1-1-1-110033005500650-1--1-1-1-1-1-1-1-|

0:34
--------------------------------------------------0-0-0-0-0-0-0--|
--------------------------------------------------3-3-3-3-3-3-3--|
--------------------------------------------------2-2-2-2-2-2-2--|
-----------------------------------------------0--0-0-0-0-0-0-0--|
-*********************************************-0--0-0-0-0-0-0-0--|
-333333333366550000000000113310333333333366550-0--0-0-0-0-0-0-0--|

0":41
---------------------------------------------|
---------------------------------------------|
---------------------------------------------|
----------------------------------------*-*--|
-***************************************3-1--|
-3333333333665500000000001133103333333333-1--|


0:46
      gt2 is6x8
-------------------------0----------------------------------0-----------|
-------------------------3----------------------------------3-----------|
-----14--1212-12-12-12---2--------------14--1212-12-12-12---2-----------|
------x---x-x--x--x--x---0---------------x---x-x--x--x--x---0-----------|
-0--/12--1010-10-10-10-0-0-0-*-*-*--0--/12--1010-10-10-10-0-0-0-*-*-*---|
-0---------------------0-0-0-0-1-3--0---------------------0-0-0-0-3-1---|

0:53
-------------------------0--------------------------------------------|
-------------------------3--------------------------------------------|
-----14--1212-12-12-12---2--------------14--1212-12-12-12-------------|
------x---x-x--x--x--x---0---------------x---x-x--x--x--x-*-*-*-*-----|
-0--/12--1010-10-10-10-0-0-0-*-*-*--0--/12--1010-10-10-10-0-0-0-0-----|
-0---------------------0-0-0-0-1-3--0---------------------0-0-0-0-----|

1:00
-------------------------------------------------------------------|
-------------------------------------------------------------------|
-------------------------------------------------------------------|
-------------------------------------------------------------------|
-***************-1--1-1-1-1-1-1-1-***************-1--1-1-1-1-1-1-1-|
-000000000000650-1--1-1-1-1-1-1-1-000000000000650-1--1-1-1-1-1-1-1-|

1:07
-------------------------------------------------------------------|
-------------------------------------------------------------------|
-------------------------------------------------------------------|
-------------------------------------------------------------------|
--**************-1--1-1-1-1-1-1-1-***************-1--1-1-1-1-1-1-1-|
--11003300550065-1--1-1-1-1-1-1-1-110033005500650-1--1-1-1-1-1-1-1-|

1:15
--------------------------------------------------0-0-0-0-0-0-0--|
--------------------------------------------------3-3-3-3-3-3-3--|
--------------------------------------------------2-2-2-2-2-2-2--|
-----------------------------------------------0--0-0-0-0-0-0-0--|
-*********************************************-0--0-0-0-0-0-0-0--|
-333333333366550000000000113310333333333366550-0--0-0-0-0-0-0-0--|

1:21
---------------------------------------------|
---------------------------------------------|
---------------------------------------------|
----------------------------------------*-*--|
-***************************************3-1--|
-3333333333665500000000001133103333333333-1--|

1:27

      gt2 is6x8
-------------------------0----------------------------------0-----------|
-------------------------3----------------------------------3-----------|
-----14--1212-12-12-12---2--------------14--1212-12-12-12---2-----------|
------x---x-x--x--x--x---0---------------x---x-x--x--x--x---0-----------|
-0--/12--1010-10-10-10-0-0-0-*-*-*--0--/12--1010-10-10-10-0-0-0-*-*-*---|
-0---------------------0-0-0-0-1-3--0---------------------0-0-0-0-3-1---|

1:33
-------------------------0--------------------------------------------|
-------------------------3--------------------------------------------|
-----14--1212-12-12-12---2--------------14--1212-12-12-12-------------|
------x---x-x--x--x--x---0---------------x---x-x--x--x--x-*-*-*-*-----|
-0--/12--1010-10-10-10-0-0-0-*-*-*--0--/12--1010-10-10-10-0-0-0-0-----|
-0---------------------0-0-0-0-1-3--0---------------------0-0-0-0-----|

1:41

--------------------------------------------------------|
--------------------------------------------------------|
-------------------8-8-8-8---------------------8-8-8-8--|
-------------------x-x-x-x---------------------x-x-x-x--|
--0------------0--/6-6-6-6---0------------0---/6-6-6-6--|
--0---/6-6-6---0-------------0---/6-6-6---0-------------|

1:54
---------------------------------------------------------------------------------|
---------------------------------------------------------------------------------|
---------------------------------------------------------------------------------|
---------------------------------------------------------------------------------|
-0-0--1--*-*-*-*---0-0--1--*-*-*-*---0-0--1--*-*-*-*---0-0--1--*-*-*-*-*---------|
-0-0|-1--1-3-3-3---0-0|-1--3-6-6-6---0-0|-1--1-3-3-3---0-0|-1--1-1-1-1-1-ect----v|

2:13
------------------------------------------------------------0---|
------------------------------------------------------------3---|
------------------------------------------------------------2---|
------------------------------------------------------------0---|
--3-6-5-*-0-1-3-0-3-6-5-*-1-1-1-1-3-6-5-*-0-1-3-*-0-1-3-*-0-0---|
--3-6-5-0-0-1-3-0-3-6-5-0-1-1-1-1-3-6-5-0-0-1-3-0-0-1-3-0-0-0---|

2:20
-----------------------------------------------------------0---|
-----------------------------------------------------------3---|
-----------------------------------------------------------2---|
-----------------------------------------------------------0---|
--3-6-5-*-0-1-3-0-3-6-5-*-1-1-1-1-3-6-5-*-0-1-3-*-0-1-3-*--0---|
--3-6-5-0-0-1-3-0-3-6-5-0-1-1-1-1-3-6-5-0-0-1-3-0-0-1-3-0--0---|

2:27
------------------------------------------------------------------|
------------------------------------------------------------------|
------------------------------------------------------------------|
--------------------------******-------------------------******---|
--3-6-5-*-0-1-3-0-3-6-5-*-111111-3-6-5-*-0-1-3-*-0-1-3-*-000000---|
--3-6-5-0-0-1-3-0-3-6-5-0-111111-3-6-5-0-0-1-3-0-0-1-3-0-000000---|

2:34
-------------------------------------------------------------|
-------------------------------------------------------------|
-------------------------------------------------------------|
--------------------------******-----------------------------|
--3-6-5-*-0-1-3-0-3-6-5-*-111111-3-6-5-*-0-1-3-*-0-1-3-*-0---|
--3-6-5-0-0-1-3-0-3-6-5-0-111111-3-6-5-0-0-1-3-0-0-1-3-0-0|--|


2:43
----------|
----------|
----------|
----------|
-1--------|
-1--------|


2:45
-------------------------------------------------------------------|
-------------------------------------------------------------------|
-------------------------------------------------------------------|
-------------------------------------------------------------------|
-***************-1--1-1-1-1-1-1-1-***************-1--1-1-1-1-1-1-1-|
-000000000000650-1--1-1-1-1-1-1-1-000000000000650-1--1-1-1-1-1-1-1-|

2:52
-----------------------------------------------------------|
-----------------------------------------------------------|
-----------------------------------------------------------|
-----------------------------------------------------*-*---|
--**************-1--1-1-1-1-1-1-1-***************-1--3-1---|
--11003300550065-1--1-1-1-1-1-1-1-110033005500650-1|-3-1---|


2:59
     gt2 is6x8
-------------------------0----------------------------------0-----------|
-------------------------3----------------------------------3-----------|
-----14--1212-12-12-12---2--------------14--1212-12-12-12---2-----------|
------x---x-x--x--x--x---0---------------x---x-x--x--x--x---0-----------|
-0--/12--1010-10-10-10-0-0-0-*-*-*--0--/12--1010-10-10-10-0-0-0-*-*-*---|
-0---------------------0-0-0-0-1-3--0---------------------0-0-0-0-3-1---|

3:05
---------------------0----------------------------------0----------------|
-------------------------3----------------------------------3------------|
-----14--1212-12-12-12---2--------------14--1212-12-12-12---2------------|
------x---x-x--x--x--x---0---------------x---x-x--x--x--x---0------------|
-0--/12--1010-10-10-10-0-0-0-*-*-*--0--/12--1010-10-10-10-0-0-0-*-*-*----|
-0---------------------0-0-0-0-1-3--0---------------------0-0-0-0-3-1----|

3:12
     gt2 is6x8
-------------------------0----------------------------------0-----------|
-------------------------3----------------------------------3-----------|
-----14--1212-12-12-12---2--------------14--1212-12-12-12---2-----------|
------x---x-x--x--x--x---0---------------x---x-x--x--x--x---0-----------|
-0--/12--1010-10-10-10-0-0-0-*-*-*--0--/12--1010-10-10-10-0-0-0-*-*-*---|
-0---------------------0-0-0-0-1-3--0---------------------0-0-0-0-3-1---|

3:19
-------------------------0--------------------------------------------|
-------------------------3--------------------------------------------|
-----14--1212-12-12-12---2--------------14--1212-12-12-12-------------|
------x---x-x--x--x--x---0---------------x---x-x--x--x--x-------------|
-0--/12--1010-10-10-10-0-0-0-*-*-*--0--/12--1010-10-10-10-0--0--0---0-|
-0---------------------0-0-0-0-1-3--0---------------------0|-0|-0|--0-|





Comments


Popular Death Angel tabs & chords
Bored Bass Tabs
Five Steps Of Freedom Tabs
God Vs. God Tabs
Im Bored Tabs
Im Bored 1 Tabs
Mistress Of Pain Tabs
Steal The Crown Intro Tabs
Ultra Violence Tabs
Volcanic Tabs
A Room With A View Ukulele


Song lyrics



↑ Back to top | Tablatures and chords are parodies/interpretations of the original songs. You may use it for private study, scholarship, research or language learning purposes only
© 2014 AZChords.com Contact us | Privacy policy | DMCA | Add/correct tabs | Request tabs | Top 50 tabs