>
 >
Mistress Of Pain

Mistress Of Pain Guitar Tabs

Death Angel - Mistress Of Pain chords, tabs, tablatures, lyrics

Guitar lessons | Add/correct | Request | Top 50 tabs Artists:  A B C D E F G H I J K L M N O P Q R S T U V W X Y Z 0-9

Mistress Of Pain Guitar Tabs – Death Angel

CD, Sheet music, Poster

Do you like Mistress Of Pain? Share with your friends now
Tabs
Band:  Death Angel

Copyright (c)  (Under One Flag) (1987)
Version 1.0 - (10/04/05)



.  - palm mute           /  - slide up to
\  - slide down to       ~  - vibrato
h  - hammer on           b  - Bend
p  - pull off            Suffixes for bend
t  - tap                 f  - full bend    h - half bend
ph - pinched harmonic    q  - quarter bend t - tap bend
*  - see comment         ^  - Hold bend    r release bend
x  - Stuccatto           ~  - vibrato bend
,  - slight palm mute    () - ghost note, sustained note
"  - tremolo note        <> - Trill

Tunning E A D G B E
 

 Intro

 Riff A
      [------------PM------------]
E---------------------------------|
B---------------------------------|
G---------------------------------|
D---------------------------------|
A-3/5-2-2-2-2-2-2-2-2-2-2-2-2-2-2-|
E-1/3-0-0-0-0-0-0-0-0-0-0-0-0-0-0-| Rpt 8 X

 Additional guitar enters 4th time with flanger effect.
      [------------PM------------]
E---------------------------------|
B---------------------------------|
G---------------------------------|
D---------------------------------|
A-----2-2-2-2-2-2-2-2-2-2-2-2-2-2-|
E-----0-0-0-0-0-0-0-0-0-0-0-0-0-0-|

      
E-----|
B-----|
G-----|
D-----|
A-3/5-|
E-1/3-|


      [------------PM------------]
E---------------------------------|
B---------------------------------|
G---------------------------------|
D---------------------------------|
A-3/5-777777777777777777777777777-|
E-1/3-000000000000000000000000000-| Rpt 4 X

  Guitar 1
E[-------|
B[-------|
G[-------|
D[-------|
A[-3-/5--|
E[-1-/3--|
 [Guitar 2
E[-------|
B[-------|
G[-------|
D[-10/12-|
A[-8-/10-|
E[-------|


 Riff B
  [------PM------]
E-----------------------------|
B-----------------------------|
G-----------------------------|
D-77777777777777773---5---3-3-|
A-00000000000000001p0-3p0-1-1-|
E-----------------------------| Rpt 5 X

 Enters 2nd time
       ~~~~~~~~~~~~~~
E-----------------------------|
B-----------------------------|
G-/9---9------9---------------|
D----7-----7------------------|
A-----------------------------|
E-----------------------------|

 Enters 3rd time
 Harmonic finger slide
E-----------------------------|
B-----------------------------|
G-----------------------------|
D-----------------------------|
A-<3>/------------------------|
E-----------------------------|

 Riff C
  [------PM------]  PM
E-----------------------------|
B-----------------------------|
G-77777777777777775--/7-5\4/5-|
D-00000000000000003p0/5-3\2/3-|
A-----------------------------|
E-----------------------------| Rpt 5 X

 Enters 2nd time
       ~~~~~~~~~~~~~~~~~
E-----------------------------|
B-/10---10----8----10---------|
G-----7----7----7-----7\------|
D-----------------------------|
A-----------------------------|
E-----------------------------|

 Enters 3rd time
 Harmonic finger slide
E-----------------------------|
B-----------------------------|
G-----------------------------|
D-<3>/------------------------|
A-----------------------------|
E-----------------------------|

 Riff D
  [------PM------]  PM   PM h
E------------------------------|
B------------------------------|
G------------------------------|
D------------------------------|
A-22222222222222223---5\3---3--|
E-00000000000000001p0-3\1p0-1--| Rpt 3 X

  [------PM------]  PM   PM h
E------------------------------|
B------------------------------|
G------------------------------|
D------------------------------|
A-22222222222222223---5\3---10-|
E-00000000000000001p0-3\1p0-8--|

 Verse Riff

 Riff E
     PM      PM    PM      PM    PM      PM    PM      PM
E----------------------------------------------------------|
B----------------------------------------------------------|
G----------------------------------------------------------|
D----------------------------------------------------------|
A-3-----3/4-----3-----3/4-----3-----3/4-----3-----3/4------|
E-1--00-1/2--00-1--00-1/2--00-1--00-1/2--00-1--00-1/2--00--|

 Riff F
     [-PM-]   [-PM-]   [-PM-]   [-PM-]
E--------------------------------------|
B--------------------------------------|
G--------------------------------------|
D-9-9---------------1010---------------|
A-7-7------9-9------8-8------1010------|
E-----0000-7-7-0000-----0000-8-8-0000--| Rpt

 Rpt above riffs 3 X

     PM      PM    PM      PM    PM      PM    PM      PM
E----------------------------------------------------------|
B----------------------------------------------------------|
G----------------------------------------------------------|
D-----------------------------10----1011----10----1011-----|
A-3-----3/4-----3-----3/4-----8-----8/9-----8-----8/9------|
E-1--00-1/2--00-1--00-1/2--00----00------00----00------00--|

     [-PM-]   [-PM-]   [-PM-]   [-PM-]
E--------------------------------------|
B--------------------------------------|
G--------------------------------------|
D-9-9---------------1010---------------|
A-7-7------9-9------8-8------1010------|
E-----0000-7-7-0000-----0000-8-8-0000--| Rpt 3 X

     [-PM-]   [-PM-]   [-PM-]                 Trem vibrato
E--------------------------------------------------------------|
B--------------------------------------------------------------|
G--------------------------------------------------------------|
D-9-9---------------1010---------------------------------------|
A-7-7------9-9------8-8------10-------------(10)---------------|
E-----0000-7-7-0000-----0000-8--------------(8)----------------|

 Bridge
                      Trem vibrato
E--------------------------|
B-----------------<5>------|
G--------------------<5>---|
D--------------------------|
A-9-/10\7-----(7)----------|
E-7-/8-\5-----(5)----------|


      [------------PM------------]
E---------------------------------|
B---------------------------------|
G---------------------------------|
D---------------------------------|
A-3/5-2-2-2-2-2-2-2-2-2-2-2-2-2-2-|
E-1/3-0-0-0-0-0-0-0-0-0-0-0-0-0-0-| Rpt 4 X

 Enters 3rd time
            Trem vibrato
E---------------------------------|
B---------------------------------|
G---------9---------(9)-----------|
D---------9---------(9)-----------|
A-3/5-----7---------(7)-----------|
E-1/3-0-0-------------------------|

 Enters 4th time
    Trem dive    Trem dive
E---------------------------------|
B-<5>-----------------------------|
G---------------------------------|
D---------------------------------|
A---------------------------------|
E--------------0------------------|

 Chorus. Rpt Riff A 4 X
         Rpt Riff B 4 X
         Rpt Riff C 4 X
         Rpt Riff D 4 X

 Backing for solo
         Rpt Riff E
         Rpt Riff F 4 X
         Rpt Riff A 8 X

  [--------------PM-----------------]
E--------------------------------------|
B--------------------------------------|
G--------------------------------------|
D--------------------------------------|
A-77777777--------88888888-------------|
E---------77777777--------8p00-8p00-8--| Rpt
 
 Enters 2nd time
                          [----PM---]
E--------------------------------------|
B--------------------------------------|
G---------------------------5---5------|
D--------------------------5---5---5---|
A-------------------------3---3---3----|
E--------------------------------------|

E--------------|
B--------------|
G--------------|
D-9-9---1010---|
A-7-7-9-8-8-10-|
E----7------8--| Rpt 8 X

 Rpt Bridge

 Chorus

      [------------PM------------]
E---------------------------------|
B---------------------------------|
G---------------------------------|
D---------------------------------|
A-3/5-2-2-2-2-2-2-2-2-2-2-2-2-2-2-|
E-1/3-0-0-0-0-0-0-0-0-0-0-0-0-0-0-| Rpt 4 X

 Enters 3rd time
            ~~~~ ~~~~~Trem vibrato
E---------------------------------|
B---------------------------------|
G---------------<3>---------------|
D-10/12--\9-----------------------|
A-8-/10--\7-7-7-------------------|
E---------------------------------|

                      ~~~~~~~~~~~
E---------------------------------|
B---------------------------------|
G---------------------------------|
D---------------------------------|
A-------------------/14-----------|
E---------------------------------|
                                   Trem vibrato
E-------------------------------------------------------------------|
B-------------------------------------------------------------------|
G-------------------------------------------------------------------|
D-------------------------------------------------------------------|
A-3/5-2------------------(2)----------------------------------------|
E-1/3-0------------------(0)----------------------------------------|

E---------------|
B---------------|
G---------------|
D-------7-7/9-9-|
A-3/5-2-5-5/7-7-|
E-1/3-0---------|





END





Comments


Popular Death Angel tabs & chords
A Room With A View 1 Tabs
Final Death Tabs
Im Bored Tabs
Im Bored 1 Tabs
Kill As One Tabs
Steal The Crown Intro Tabs
Stop Tabs
Ultra Violence Tabs
Veil Of Deception Tabs
A Room With A View Ukulele


Song lyrics



↑ Back to top | Tablatures and chords are parodies/interpretations of the original songs. You may use it for private study, scholarship, research or language learning purposes only
© 2014 AZChords.com Contact us | Privacy policy | DMCA | Add/correct tabs | Request tabs | Top 50 tabs