>
 >
Killing Shadows

Killing Shadows Bass Tabs

Death Angel - Killing Shadows chords, tabs, tablatures, lyrics

Guitar lessons | Add/correct | Request | Top 50 tabs Artists:  A B C D E F G H I J K L M N O P Q R S T U V W X Y Z 0-9

Killing Shadows Bass Tabs – Death Angel

CD, Sheet music, Poster

Do you like Killing Shadows? Share with your friends now
Bass Tabs
G||-------------------|-------------------||--------------------|
D||*------------------|------------------*||*-------------------|
A||*------------------|------------------*||*-------------------|
E||-------------------|-------------------||---5----------------|


                                                                 
--------------------||--------------------|--------------------||
-------------------*||*-------------------|-------------------*||
-------------------*||*-------------------|-------------------*||
--0-----------------||---5----------------|--0-----------------||


                                                            
-------------------|-------------------|-------------------|
-------------------|-------------------|-------------------|
-------------------|-------------------|-------------------|
--5----------------|--7----------------|--8----------------|


                                                              
--------------------|--------|------|------------------------|
--------------------|--------|------|------------------------|
--------------------|--------|------|------0------0-2-3------|
--10----------------|--12----|------|--2-3-------------------|


                                                        
-----------------------------|-------------------------|
-----------------------------|-------------------------|
------5----------------------|-------------------------|
--3/5--------5/1-1-1-1-1-1-1-|--1-1-1-1-1-1-2-1-2-1--0-|


                                                                      
----------------------------------|----------------------------------|
----------------------------------|----------------------------------|
------3-2-------------3-2-----5---|------3-2---------3---2-----------|
--0-0-----0-0-1-0-0-0-----0-0---0-|--0-0-----0-0-1-0---0---0-0-3-2-0-|


                                                                      
----------------------------------|----------------------------------|
----------------------------------|----------------------------------|
------3-2-------------3-2-----5---|------3-2---------3---2-----------|
--0-0-----0-0-1-0-0-0-----0-0---0-|--0-0-----0-0-1-0---0---0-0-3-2-5-|


                                                                        
|-----------------------------------|----------------------------------|
|*----------------------------------|----------------------------------|
|*------3-2-------------3-2-----5---|------3-2---------3---2-----------|
|---0-0-----0-0-1-0-0-0-----0-0---0-|--0-0-----0-0-1-0---0---0-0-3-2-0-|


                                                                        
----------------------------------|-----------------------------------||
----------------------------------|----------------------------------*||
------3-2-------------3-2-----5---|------3-2---------3---2-----------*||
--0-0-----0-0-1-0-0-0-----0-0---0-|--0-0-----0-0-1-0---0---0-0-3-2-5--||


                                                                      
----------------------------------|----------------------------------|
----------------------------------|----------------------------------|
------4-3-------3-----4-3-------3-|------5-4-------4-----5-4-------4-|
--2-2-----2-2-2---2-2-----2-2-2---|--2-2-----2-2-2---2-2-----2-2-2---|


                                                                      
----------------------------------|----------------------------------|
----------------------------------|----------------------------------|
------4-3-------3-----4-3-------3-|------3-2-------2-----3-2-------2-|
--2-2-----2-2-2---2-2-----2-2-2---|--2-2-----2-2-2---2-2-----2-2-2---|


                                                                   
|---------------------------------|-------------------------------|
|*--------------------------------|-------------------------------|
|*--5--5-5-5-5-5-5-3--3-3-3-3-3-3-|--1--1-1-1-1-1-1-3--3-3-5--5-7-|
|---------------------------------|-------------------------------|


                                                                 
--------------------------------|-------------------------------|
--------------------------------|-------------------------------|
--5--5-5-5-5-5-5-3--3-3-3-3-3-3-|--1--1-1-1-1-1-1-3--3-3-5--5-7-|
--------------------------------|-------------------------------|


                                                                 
--------------------------------|-------------------------------|
--------------------------------|-------------------------------|
--5--5-5-5-5-5-5-3--3-3-3-3-3-3-|--1--1-1-1-1-1-1-3--3-3-5--5-7-|
--------------------------------|-------------------------------|


                                                                 
--------------------------------|-------------------------------|
--------------------------------|-------------------------------|
--5--5-5-5-5-5-5-3--3-3-3-3-3-3-|--1--1-1-1-1-1-1-3--3-3-5--5-7-|
--------------------------------|-------------------------------|


                                                               
--------------------|--------------------|--------------------|
--------------------|--------------------|--------------------|
--5--------3--------|--1--------3--------|--5--------3--------|
--------------------|--------------------|--------------------|


                                                                     
--------------------|--10-------10-------10----9-------9-------9----|
--------------------|-----12-12----12-12----12---10-10---10-10---10-|
--1--------3--------|-----------------------------------------------|
--------------------|-----------------------------------------------|


                                        
--7-----7-----7---9-------9-------9----|
----8-8---8-8---8---10-10---10-10---10-|
---------------------------------------|
---------------------------------------|


                                                
--10-------10-------10----9-------9-------9----|
-----12-12----12-12----12---10-10---10-10---10-|
-----------------------------------------------|
-----------------------------------------------|


                                        
--7-----7-----7---9-------9-------9----|
----8-8---8-8---8---10-10---10-10---10-|
---------------------------------------|
---------------------------------------|


                                                   
--------------------------------------------------|
--12-12-12-12-12-12-12-12-10-10-10-10-10-10-10-10-|
--------------------------------------------------|
--------------------------------------------------|


                                           
------------------------------------------|
--8-8-8-8-8-8-8-8-10-10-10-10-10-10-10-10-|
------------------------------------------|
------------------------------------------|


                                                   
--------------------------------------------------|
--12-12-12-12-12-12-12-12-10-10-10-10-10-10-10-10-|
--------------------------------------------------|
--------------------------------------------------|


                                           
------------------------------------------|
--8-8-8-8-8-8-8-8-10-10-10-10-10-10-10-10-|
------------------------------------------|
------------------------------------------|


                                                   
--------------------------------------------------|
--12-12-12-12-12-12-12-12-10-10-10-10-10-10-10-10-|
--------------------------------------------------|
--------------------------------------------------|


                                           
------------------------------------------|
--8-8-8-8-8-8-8-8-10-10-10-10-10-10-10-10-|
------------------------------------------|
------------------------------------------|


                                                   
--------------------------------------------------|
--12-12-12-12-12-12-12-12-10-10-10-10-10-10-10-10-|
--------------------------------------------------|
--------------------------------------------------|


                                                                
------------------------------------------|--------------------|
--8-8-8-8-8-8-8-8-10-10-10-10-10-10-10-10-|--------------------|
------------------------------------------|--5--------3--------|
------------------------------------------|--------------------|


                                                            
------------------------|----------------------------------|
------------------------|----------------------------------|
--1--------3------------|------3-2-------------3-2-----5---|
----------------2-3-2-0-|--0-0-----0-0-1-0-0-0-----0-0---0-|


                                                                      
----------------------------------|----------------------------------|
----------------------------------|----------------------------------|
------3-2---------3---2-----------|------3-2-------------3-2-----5---|
--0-0-----0-0-1-0---0---0-0-3-2-0-|--0-0-----0-0-1-0-0-0-----0-0---0-|


                                                                        
----------------------------------||-----------------------------------|
----------------------------------||*----------------------------------|
------3-2---------3---2-----------||*------3-2-------------3-2-----5---|
--0-0-----0-0-1-0---0---0-0-3-2-5-||---0-0-----0-0-1-0-0-0-----0-0---0-|


                                                                      
----------------------------------|----------------------------------|
----------------------------------|----------------------------------|
------3-2---------3---2-----------|------3-2-------------3-2-----5---|
--0-0-----0-0-1-0---0---0-0-3-2-0-|--0-0-----0-0-1-0-0-0-----0-0---0-|


                                                                        
-----------------------------------||----------------------------------|
----------------------------------*||----------------------------------|
------3-2---------3---2-----------*||------4-3-------3-----4-3-------3-|
--0-0-----0-0-1-0---0---0-0-3-2-5--||--2-2-----2-2-2---2-2-----2-2-2---|


                                                                      
----------------------------------|----------------------------------|
----------------------------------|----------------------------------|
------5-4-------4-----5-4-------4-|------4-3-------3-----4-3-------3-|
--2-2-----2-2-2---2-2-----2-2-2---|--2-2-----2-2-2---2-2-----2-2-2---|


                                                                    
----------------------------------|--------------------------------|
----------------------------------|--------------------------------|
------3-2-------2-----3-2-------2-|--5--5-5-5-5-5-5-3--3-3-3-3-3-3-|
--2-2-----2-2-2---2-2-----2-2-2---|--------------------------------|


                                                                 
-------------------------------|--------------------------------|
-------------------------------|--------------------------------|
--1--1-1-1-1-1-1-3--3-3-5--5-7-|--5--5-5-5-5-5-5-3--3-3-3-3-3-3-|
-------------------------------|--------------------------------|


                                                                 
-------------------------------|--------------------------------|
-------------------------------|--------------------------------|
--1--1-1-1-1-1-1-3--3-3-5--5-7-|--5--5-5-5-5-5-5-3--3-3-3-3-3-3-|
-------------------------------|--------------------------------|


                                                                 
-------------------------------|--------------------------------|
-------------------------------|--------------------------------|
--1--1-1-1-1-1-1-3--3-3-5--5-7-|--5--5-5-5-5-5-5-3--3-3-3-3-3-3-|
-------------------------------|--------------------------------|


                                                                          
-------------------------------|--------------------|--------------------|
-------------------------------|--------------------|--------------------|
--1--1-1-1-1-1-1-3--3-3-5--5-7-|--5--------3--------|--1--------3--------|
-------------------------------|--------------------|--------------------|


                                                   
--------------------|--------------------|--------|
--------------------|--------------------|--------|
--5--------3--------|--1--------3--------|--------|
--------------------|--------------------|--10/---|


                                                                      
----------------------------------|----------------------------------|
----------------------------------|----------------------------------|
------6-5-----5-4-----4-2-----2-0-|------6-5-----5-4-----4-2-----2-0-|
--2-2-----2-2-----2-2-----2-2-----|--2-2-----2-2-----2-2-----2-2-----|


                                                                      
----------------------------------|----------------------------------|
----------------------------------|----------------------------------|
------6-5-----5-4-----4-2-----2-0-|------6-5-----5-4-----4-2-----2-0-|
--2-2-----2-2-----2-2-----2-2-----|--2-2-----2-2-----2-2-----2-2-----|


                                           
---------------|--------------------|----||
---------------|--------------------|----||
---------------|--------------------|----||
--2------------|--2-2---------------|----||





Comments


Popular Death Angel tabs & chords
A Room With A View Chords
3rd Floor Tabs
Dethroned Tabs
Im Bored Tabs
Kill As One 1 Tabs
Mistress Of Pain Tabs
Organization Tabs
Thrashers Tabs
Voracious Souls Tabs
A Room With A View Ukulele


Song lyrics



↑ Back to top | Tablatures and chords are parodies/interpretations of the original songs. You may use it for private study, scholarship, research or language learning purposes only
© 2014 AZChords.com Contact us | Privacy policy | DMCA | Add/correct tabs | Request tabs | Top 50 tabs