>
 >
Kill As One 1

Kill As One 1 Guitar Tabs

Death Angel - Kill As One 1 chords, tabs, tablatures, lyrics

Guitar lessons | Add/correct | Request | Top 50 tabs Artists:  A B C D E F G H I J K L M N O P Q R S T U V W X Y Z 0-9

Kill As One 1 Guitar Tabs – Death Angel

CD, Sheet music, Poster

Do you like Kill As One 1? Share with your friends now
TabsTabs v2
Band:  Death Angel

Copyright (c)  (Under One Flag) (1987)
Version 1.0 - (21/05/05)



.  - palm mute           /  - slide up to
\  - slide down to       ~  - vibrato
h  - hammer on           b  - Bend
p  - pull off            Suffixes for bend
t  - tap                 f  - full bend    h - half bend
ph - pinched harmonic    q  - quarter bend t - tap bend
*  - see comment         ^  - Hold bend    r release bend
x  - Stuccatto           ~  - vibrato bend
,  - slight palm mute    () - ghost note, sustained note
"  - tremolo note        <> - Trill

Tunning E A D G B E
 

 Intro

    [----PM----]  [----PM----]  [----PM----]  [----PM----]
E------------------------------------------------------------|
B------------------------------------------------------------|
G-10------------10------------10------------10---------------|
D-10------------10------------10------------10------------8--|
A-8-------------8-------------8-------------8-------------8--|
E---0-000-000-0---0-000-000-0---0-000-000-0---0-000-000-0-6--|

  Guitar 1
   [----PM----]  [----PM----]  [----PM----]  [----PM----]
E[----------------------------------------------------------|
B[----------------------------------------------------------|
G[-------------10------------10------------10---------------|
D[-------------10------------10------------10------------8--|
A[-------------8-------------8-------------8-------------8--|
E[-0-000-000-0---0-000-000-0---0-000-000-0---0-000-000-0-6--|
 [Guitar 2
E[----------------------------------------------------------|
B[----------------------------------------------------------|
G[----------------------------------------------------------|
D[-------------------------------------------------------8--|
A[-------------------------------------------------------8--|
E[-------------------------------------------------------6--|

 Main Riff

  [----PM----]  [----PM----]  [----PM----]  [----PM----]
E----------------------------------------------------------|
B----------------------------------------------------------|
G-------------10------------10------------10---------------|
D-------------10------------10------------10------------8--|
A-------------8-------------8-------------8-------------8--|
E-0-000-000-0---0-000-000-0---0-000-000-0---0-000-000-0-6--| Rpt

  [----PM----]  [----PM----]  [----PM----]  [----PM----]
E-----------------------------------------------------------|
B-----------------------------------------------------------|
G-------------10------------10------------10----------------|
D-------------10------------10------------10------------8-8-|
A-------------8-------------8-------------8-------------8-8-|
E-00000000000---00000000000---00000000000---00000000000-6-6-|

  [----PM----]  [----PM----]  [----PM----]  [----PM----]
E-----------------------------------------------------------|
B-----------------------------------------------------------|
G-------------10------------10------------10----------------|
D-------------10------------10------------10------------8-\-|
A-------------8-------------8-------------8-------------8-\-|
E-00000000000---00000000000---00000000000---00000000000-6-\-|


  [-----------PM-------------]  [-----------PM-------------]
E-------------------------------------------------------------|
B-------------------------------------------------------------|
G-------------------------------------------------------------|
D-------------3-2-0-------3/5-2-------------3-2-0-------3/5-7-|
A-------3-2-0-------3-2-3-----0-------3-2-0-------3-2-3-----5-|
E-0-1-0-------------------------0-1-0-------------------------| Rpt

 Verse

    [--PM--]   [--PM--]   [--PM--]   [-PM-]
E-----------------------------------------------|
B-----------------------------------------------|
G-----------------------------------------------|
D-------------------------------------------5-2-|
A-0-22222222-0-22222222-0-22222222-0-222222-3-0-|
E-----------------------------------------------|

    [--PM--]   [--PM--]     [--PM--]   [-PM-]
E---------------------------------------------------|
B---------------------------------------------------|
G---------------------------------------------5---7-|
D---------------------------------------------5---7-|
A-0-22222222-0-222222232032022222222-0-222222---0-5-|
E---------------------------------------------------|

    [--PM--]   [--PM--]   [--PM--]   [-PM-]      PM
E-----------------------------------------------------|
B-----------------------------------------------------|
G-----------------------------------------------5---2-|
D-----------------------------------------------5---2-|
A-0-22222222-0-22222222-0-22222222-0-2222320320---0-0-|
E-----------------------------------------------------|

    [--PM--]   [--PM--]     [--PM--]   [-PM-]
E---------------------------------------------------|
B---------------------------------------------------|
G---------------------------------------------5--/7-|
D---------------------------------------------5--/7-|
A-0-22222222-0-222222232032022222222-0-222222-3-0/5-|
E---------------------------------------------------|

 Chorus Rpt Main Riff section
 Rpt Verse and Chorus.

E---------------------------------------------|
B---------------------------------------------|
G---------------------------------------------|
D------------(7)------------------------------|
A------------(5)------------------------------|
E---------------------------------------------|

  Guitar 1
E[-------------------------------------|
B[-------------------------------------|
G[-9-9-9-9-7-7-7-7-4-4-4-4-5-5-5-5/7---|
D[-7-7-7-7-5-5-5-5-2-2-2-2-3-3-3-3/5---|
A[-------------------------------------|
E[-------------------------------------|
 [Guitar 2                     ~~~~~
E[-------------------------------------|
B[----------------------------13-------|
G[-------------------------------------|
D[-------------------------14----------|
A[-------------------------------------|
E[-------------------------------------| 
 [Guitar 2                     
E[-------------------------------------|
B[----------------------------------15-|
G[-------------------------------12----|
D[-------------------------------------|
A[-------------------------------------|
E[-------------------------------------| Rpt

  Guitar 1
                           ph ph  ph ph
E[---------------------------------------|
B[---------------------------------------|
G[-----------------------------5------7--|
D[-9-9-9-9-7-7-7-7-4-4-4-4-5-5------7----|
A[-7-7-7-7-5-5-5-5-2-2-2-2-3-----/5------|
E[---------------------------------------|
 [Guitar 2                        ~~~~             
E[---------------------------------------|
B[---------------------------13--13------|
G[-------------------------12--12--------|
D[---------------------------------------|
A[---------------------------------------|
E[---------------------------------------|
 [Guitar 3
E[------------------------------------10-|
B[----------------------------------10---|
G[---------------------------------9-----|
D[---------------------------------------|
A[---------------------------------------|
E[---------------------------------------| Rpt


E------------------------------------|
B------------------------------------|
G------------------------------------|
D-2------3-2------5-2------3-2-------|
A-0------1-0------3-0------1-0-------|
E------------------------------------|

  Guitar 1
E[------------------------------------------------------------|
B[------------------------------------------------------------|
G[------------------------------------------------------------|
D[-10\9-------------------(9)--------\---------------------8--|
A[-8-\7-------------------(7)--------\---------------------8--|
E[----0-------------------(0)------------------------------6--|
 [Guitar 2
 [   [----PM----]  [----PM----]  [----PM----]  [----PM----]
E[------------------------------------------------------------|
B[------------------------------------------------------------|
G[-10\-----------10------------10------------10---------------|
D[-10\-----------10------------10------------10------------8--|
A[-8-\-----------8-------------8-------------8-------------8--|
E[---0-000-000-0---0-000-000-0---0-000-000-0---0-000-000-0-6--|

 Rpt Main Riff section.

  harmonic pull up on trem followed by dive
E-------------------------------------------|
B-------------------------------------------|
G-<4>---------------------------------------|
D-------------------------------------------|
A-------------------------------------------|
E-------------------------------------------|

 Backing for solo
 Main Riff 4 X

 Riff A
  [----PM----]  [----PM----]  [----PM----]  [----PM----]
E----------------------------------------------------------|
B----------------------------------------------------------|
G----------------------------------------------------------|
D-------------------------------------------------------8--|
A-------------3-------------3-------------3-------------8--|
E-0-000-000-0-1-0-000-000-0-1-0-000-000-0-1-0-000-000-0-6--|Rpt 4 X

 Main Riff 2 X
 Riff A 2 X

  [----PM----]  [----PM----]  [----PM----]  [----PM----]
E-----------------------------------------------------------|
B-----------------------------------------------------------|
G-------------10------------10------------10----------------|
D-------------10------------10------------10------------8-8-|
A-------------8-------------8-------------8-------------8-8-|
E-00000000000---00000000000---00000000000---00000000000-6-6-|Rpt 4 X

  [----PM----]  [----PM----]  [----PM----]  [----PM----]
E-----------------------------------------------------------|
B-----------------------------------------------------------|
G-----------------------------------------------------------|
D-------------------------------------------------------8-8-|
A-------------3-------------3-------------3-------------8-8-|
E-00000000000-1-00000000000-1-00000000000-1-00000000000-6-6-|Rpt 3 X

  [----PM----]  [----PM----]  [----PM----]  [----PM----]
E-----------------------------------------------------------|
B-----------------------------------------------------------|
G-------------10------------10------------10----------------|
D-------------10------------10------------10------------8---|
A-------------8-------------8-------------8-------------8---|
E-00000000000---00000000000---00000000000---00000000000-6---|

 Trem dive with wah                  Slack string noises and feedback
E-------------------------------------------------------------------|
B-------------------------------------------------------------------|
G-------------------------------------------------------------------|
D-------------------------------------------------------------------|
A-------------------------------------------------------------------|
E-0-----------------------------------------------------------------|


END





Comments


Popular Death Angel tabs & chords
A Room With A View 1 Tabs
Evil Priest Tabs
Final Death Tabs
Im Bored 1 Tabs
Steal The Crown Intro Tabs
Stop Tabs
Thrown To The Wolves Intro Tabs
Ultra Violence Intro 2 Tabs
Veil Of Deception Tabs
Volcanic Tabs


Song lyrics



↑ Back to top | Tablatures and chords are parodies/interpretations of the original songs. You may use it for private study, scholarship, research or language learning purposes only
© 2014 AZChords.com Contact us | Privacy policy | DMCA | Add/correct tabs | Request tabs | Top 50 tabs