>
 >
Kill As One

Kill As One Guitar Tabs

Death Angel - Kill As One chords, tabs, tablatures, lyrics

Guitar lessons | Add/correct | Request | Top 50 tabs Artists:  A B C D E F G H I J K L M N O P Q R S T U V W X Y Z 0-9

Kill As One Guitar Tabs – Death Angel

CD, Sheet music, Poster

Do you like Kill As One? Share with your friends now
TabsTabs v2
Intro

E --------------------------------------------------------------------------|
B --------------------------------------------------------------------------|
G -10----------------10----------------10----------------10-----------------|
D -10----------------10----------------10----------------10-------------8---|
A -8 ----------------8 ----------------8 ----------------8 -------------8---
E -----0-00-0-00-0-0-----0-00-0-00-0-0-----0-00-0-00-0-0-----0-00-0-0-0-6---

Riff 1

E ----------------------------------------------------------------------|
B ----------------------------------------------------------------------|
G ---------------10----------------10----------------10-----------------|
D ---------------10----------------10----------------10-------------8---|
A ---------------8 ----------------8 ----------------8 -------------8---|
E -0-00-0-00-0-0-----0-00-0-00-0-0-----0-00-0-00-0-0-----0-00-0-0-0-6---|

Riff 1A

E --------------------------------------------------------------------------------------|
B --------------------------------------------------------------------------------------|
G -------------------10--------------------10--------------------10---------------------|
D -------------------10--------------------10--------------------10-----------------8---|
A -------------------8 --------------------8 --------------------8 -----------------8---|
E -00-00-00-00-00-00-----00-00-00-00-00-00-----00-00-00-00-00-00-----00-00-00-00-00-6---|

Riff 1B

E -------------------------------------------------------------------|
B -------------------------------------------------------------------|
G -------------------------------------------------------------------|
D ---------------3----------------3----------------3-------------8---|
A ---------------3----------------3----------------3-------------8---|
E -0-00-0-00-0-0-1--0-00-0-00-0-0-1--0-00-0-00-0-0-1--0-00-0-0-0-6---|

Riff 1C

E ---------------------------------------------------------------------------------|
B ---------------------------------------------------------------------------------|
G ---------------------------------------------------------------------------------|
D -------------------3-----------------3--------------------3------------------8---|
A -------------------3-----------------3--------------------3------------------8---|
E -00-00-00-00-00-00-1--00-00-0-00-0-0-1--00-00-00-00-00-00-1---00-00-00-00-00-6---|

Riff 2

E ---------------------------------------------------------------|
B ---------------------------------------------------------------|
G ------------------------------------------------------------7--|
D -------------3-2-0-------5---7--------------3-2-0-------5---7--|
A -------3-2-0-------3-2-3-----7--------3-2-0-------3-2-3---0-5--|
E -0-1-0---------------------0-5--0-1-0--------------------------|

Riff 3

E ----------------------------------------------------------------------------------------|
B ----------------------------------------------------------------------------------------|
G ----------------------------------------------------------------------------------------|
D ---------------------------------------------------------------------------------5---7--|
A -0-22-22-22-22-22-22-22-0-22-22-22-22-22-22-22-0-22-22-22-22-22-22-22-0-22-22-22-----7--|
E -----------------------------------------------------------------------------------0-5--|

  1
E ----------------------------------------------------------------------------------------|
B ----------------------------------------------------------------------------------------|
G -------------------------------------------------------------------------------------7--|
D ---------------------------------------------------------------------------------5---7--|
A -0-22-22-22-22-22-22-22-0-22-22-22-22-22-22-22-0-22-22-22-22-22-22-22-0-22-22-22-----5--|
E -----------------------------------------------------------------------------------0----|

  2
E ---------------------------------------------------------------------------------------|
B ---------------------------------------------------------------------------------------|
G ---------------------------------------------------------------------------------5--7--|
D ---------------------------------------------------------------------------------5--7--|
A -0-22-22-22-22-22-22-22-0-22-22-22-22-22-22-22-0-22-22-22-22-22-22-22-0-22-22-22-3--5--|
E ---------------------------------------------------------------------------------------|

Riff 4

E -----------------------------------------------------------------|
B -----------------------------------------------------------------|
G -9---9---9---9---7---7---7---7---4---4---4---4---5---5---7---7---|
D -7-0-7-0-7-0-7-0-5-0-5-0-5-0-5-0-2-0-2-0-2-0-2-0-3-0-3-0-5-0-5-0-|
A -----------------------------------------------------------------|
E -----------------------------------------------------------------|

Riff 4A

E ----------------------------------------------------8-----10--|
B -------------------------------------------------6-----8------|
G -9---9---9---9---7---7---7---7---4---4---4---4----------------|
D -7-0-7-0-7-0-7-0-5-0-5-0-5-0-5-0-2-0-2-0-2-0-2-0--------------|
A --------------------------------------------------------------|
E --------------------------------------------------------------|

Riff 5

E -----------------------------------------------------------------|
B -----------------------------------------------------------------|
G -----------------------------------------------------------------|
D -9---9---9---9---7---7---7---7---4---4---4---4---5---5---7---7---|
A -7-0-7-0-7-0-7-0-5-0-5-0-5-0-5-0-2-0-2-0-2-0-2-0-3-0-3-0-5-0-5-0-|
E -----------------------------------------------------------------|

Riff 5A

E -----------------------------------------------------8--------10----|
B ---------------------------------------------------8---8---10----10-|
G -------------------------------------------------5-------7----------|
D -9---9---9---9---7---7---7---7---4---4---4---4----------------------|
A -7-0-7-0-7-0-7-0-5-0-5-0-5-0-5-0-2-0-2-0-2-0-2-0--------------------|
E --------------------------------------------------------------------|

Riff 6

E --------------------------------------------|
B --------------------------------------------|
G --------------------------------------10----|
D -7-----8---7-----10---7-----8---7-----10----|
A -7-----8---7-----10---7-----8---7-----8 ----|
E -5-----6---5-----8 ---5-----6---5-----------|





Comments


Popular Death Angel tabs & chords
Killing Shadows Bass Tabs
3rd Floor Tabs
Bored Tabs
Falling Asleep Tabs
Final Death Tabs
Five Steps Of Freedom Tabs
Thrown To The Wolves Tabs
Ultra Violence Intro 1 Tabs
Ultra Violence Intro 2 Tabs
A Room With A View Ukulele


Song lyrics



↑ Back to top | Tablatures and chords are parodies/interpretations of the original songs. You may use it for private study, scholarship, research or language learning purposes only
© 2014 AZChords.com Contact us | Privacy policy | DMCA | Add/correct tabs | Request tabs | Top 50 tabs