>
 >
Evil Priest

Evil Priest Guitar Tabs

Death Angel - Evil Priest chords, tabs, tablatures, lyrics

Guitar lessons | Add/correct | Request | Top 50 tabs Artists:  A B C D E F G H I J K L M N O P Q R S T U V W X Y Z 0-9

Evil Priest Guitar Tabs – Death Angel

CD, Sheet music, Poster

Do you like Evil Priest? Share with your friends now
Tabs
Band:  Death Angel

Copyright (c)  (Under One Flag) (1987)
Version 1.0 - (22/05/05)



.  - palm mute           /  - slide up to
\  - slide down to       ~  - vibrato
h  - hammer on           b  - Bend
p  - pull off            Suffixes for bend
t  - tap                 f  - full bend    h - half bend
ph - pinched harmonic    q  - quarter bend t - tap bend
*  - see comment         ^  - Hold bend    r release bend
x  - Stuccatto           ~  - vibrato bend
,  - slight palm mute    () - ghost note, sustained note
"  - tremolo note        <> - Trill

Tunning E A D G B E
 

 Intro / Main Riff

  [-PM-]  [-PM-] [-PM-]       [-PM-]  [-PM-]  [-PM-]
E----------------------------------------------------------|
B----------------------------------------------------------|
G----------------------------------------------------------|
D----------------------------------------------------------|
A-------5-------4-------4/5/8-------5-------4-------4/5\3--|
E-0-000-3-0-000-2-0-000-2/3/6-0-000-3-0-000-2-0-000-2/3\1--|Rpt 8 X

 Drums, bass and 2nd guitar enter 3rd time.

 Verse 

  [PM]  [PM]  [PM]  [PM] [PM]
E------------------------------------|
B------------------------------------|
G------------------------------------|
D------------------------------------|
A-----5-----4-----8-----5-----4/5\4--|
E-0-0-3-0-0-2-0-0-6-0-0-3-0-0-2/3\2--| Rpt 3 X

  [PM]  [PM]  [PM]  [PM] [-----PM----]
E-------------------------------------|
B-------------------------------------|
G-------------------------------------|
D-------------------------------------|
A-----5-----4-----8-----5-----4/5\4/5-|
E-0-0-3-0-0-2-0-0-6-0-0-3-0-0-2/3\2/3-|

 Rpt above riffs with additional guitar.
                  ph~~~~
E------------------------------------|
B------------------------------------|
G------------------------------------|
D-----------------8------------------|
A------------------------------------|
E------------------------------------|

                  ph~~~~          ~~
E------------------------------------|
B------------------------------------|
G------------------------------------|
D-----------------8-----------4-5p4--|
A------------------------------------|
E------------------------------------|

                  ph~~~~
E------------------------------------|
B------------------------------------|
G-----------------------------6/7\6/-|
D-----------------8-----------4/5\4/-|
A------------------------------------|
E------------------------------------|

                  ph~~
E------------------------------------|
B------------------------------------|
G------------------------------------|
D-----------------8------------------|
A------------------------------------|
E------------------------------------|

  Guitar 1
  [--------PM--------]        ~~~~
E[------------------------------------|
B[------------------------------------|
G[------------------------------------|
D[------------------------------------|
A[-8-88\7777-8-88\7777-8----5/8-------|
E[-6-66\5555-6-66\5555-6--------------|
 [
 [Guitar 2
 [[--------PM--------]        ~~~~
E[------------------------------------|
B[--------------------------8/11----\-|
G[------------------------------------|
D[------------------------------------|
A[-8-88\7777-8-88\7777-8--------------|
E[-6-66\5555-6-66\5555-6--------------|

 Rpt Verse

 Mid Section

 [-PM-]        [-PM-]      ~~~~
E-------------------------------|
B-------------------------------|
G-------------------------------|
D-2----5-\4-\3--2----5-\4-------|
A-0-00-3-\2-\1--0-00-3-\2-------|
E--------------------------3----|

  Guitar 1
  [-PM-]      ph[-PM-]      ~~~~
E[-------------------------------|
B[-------------------------------|
G[------------3------------------|
D[-2----5-\4-----2----5-\4-------|
A[-0-00-3-\2-----0-00-3-\2-------|
E[--------------------------3----|
 [Guitar 2               trill
E[-------------------------------|
B[-------------------------------|
G[-------------------------------|
D[-------/7--------------3-5-----|
A[-----------------------------x\|
E[-----------------------------x\|

 [-PM-]        
E--------------|
B--------------|
G--------------|
D-2----5-\4-\3-|
A-0-00-3-\2-\1-|
E--------------|

  [------PM-----]
E---------------------------|
B---------------------------|
G---------------------------|
D---------------------------|
A----------------8\7-8\7-7--|
E-0-1p0-2p0-3p00-6\5-6\5-5--| Rpt 4 X

  Guitar 1
E[--------------------------|
B[--------------------------|
G[--------------------------|
D[--------------------------|
A[----------------8\7-8\7-7-|
E[-0-1p0-2p0-3p00-6\5-6\5-5-|
 [Guitar 2
E[--------------------------|
B[--------------------------|
G[--------------------------|
D[--------------------------|
A[----------------8\7-8\7-7-|
E[----------------6\5-6\5-5-|

  Guitar 1
  [----------PM----------] ~~~
E------------------------------|
B------------------------------|
G------------------------------|
D------------------------------|
A----------------1-00-1-00-1--\|
E-0-1p0-2p0-3p00---------------|
 Guitar 2
  [------PM-----]          ~~~
E------------------------------|
B------------------------------|
G------------------------------|
D---------------/8-77-8-77-8--\|
A------------------------------|
E-0-1p0-2p0-3p00---------------|

 Bass and drums on own.

  Guitar 1
  [PM]    [PM]     [PM]   [----PM---]
E[------------------------------------|
B[------------------------------------|
G[------------------------------------|
D[------------------------------------|
A[-2-2-3-2-2-2-4-2-2-2-5-2-2-2-8\7/8--|
E[-0-0-1p0-0-0-2p0-0-0-3p0-0-0-6\5/6--|
 [
 [Guitar 2
 [[PM]    [PM]     [PM]   [PM]   [PM]
E[------------------------------------|
B[------------------------------------|
G[------------------------------------|
D[-----------------------------8------|
A[-2-2-3-2-2-2-4-2-2-2-5-2-2-2---7/8--|
E[-0-0-1p0-0-0-2p0-0-0-3p0-0-0---5/6--|

 Rpt 16 X with gradual increase in tempo.

  [PM]   [PM]   [PM]  [-PM-]
E---------------------------------|
B---------------------------------|
G---------------------------------|
D---------------------------------|
A-2----3------4------5-----8\7/8--|
E-0-00-1p0-00-2p0-00-3p000-6\5/6--| Rpt 12 X for guitar solo backing.

  Guitar 1
   [PM]   [PM]   [PM]  [-PM-]
E[---------------------------------|
B[---------------------------------|
G[---------------------------------|
D[---------------------------------|
A[-2----3------4------5-----8\7/8--|
E[-0-00-1p0-00-2p0-00-3p000-6\5/6--|
 [Guitar 2
 [[PM]   [PM]   [PM]  [-PM-]
E[---------------------------------|
B[---------------------------------|
G[---------------------------------|
D[---------------------------------|
A[--------------------------8\7/8--|
E[--------------------------6\5/6--| Rpt

  [PM]   [PM]   [PM]  [-PM-]
E---------------------------------|
B---------------------------------|
G---------------------------------|
D---------------------------------|
A-2----3------4------5-----8\7/8--|
E-0-00-1p0-00-2p0-00-3p000-6\5/6--| Rpt

 Rpt Intro / Main Riff once with one guitar alone
 Rpt Main Riff 4 X
 Rpt Verse
 Rpt Mid Section

  Guitar 1
   [PM]   [PM]   [PM]  [-PM-]
E[------------------------------------|
B[------------------------------------|
G[------------------------------------|
D[------------------------------------|
A[-2----3------4------5-----8\7/8\7-7-|
E[-0-00-1p0-00-2p0-00-3p000-6\5/6\5-5-|
 [Guitar 2
 [[PM]   [PM]   [PM]  [-PM-]
E[------------------------------------|
B[------------------------------------|
G[------------------------------------|
D[------------------------------------|
A[--------------------------8\7/8\7-7-|
E[--------------------------6\5/6\5-5-| Rpt 3 X

  Both guitars

   [PM]   [PM]   [PM]  [PM]
E----------------------------------------------------------------|
B----------------------------------------------------------------|
G----------------------------------------10p8p7----8p7-----------|
D-------------------------/77-8-77-8-777--------10-----7-8\5---\-|
A-2----3------4------5-------------------------------------------|
E-0-00-1p0-00-2p0-00-3p000---------------------------------------|




END





Comments


Popular Death Angel tabs & chords
Killing Shadows Bass Tabs
A Room With A View Chords
Dethroned Tabs
Devils Metal Tabs
God Vs. God Tabs
Kill As One Tabs
Kill As One 1 Tabs
Thrown To The Wolves Tabs
Thrown To The Wolves Intro Tabs
Ultra Violence Intro 2 Tabs


Song lyrics



↑ Back to top | Tablatures and chords are parodies/interpretations of the original songs. You may use it for private study, scholarship, research or language learning purposes only
© 2014 AZChords.com Contact us | Privacy policy | DMCA | Add/correct tabs | Request tabs | Top 50 tabs