» » »

Death Angel, Devils Metal Tabs (ver.1)

Artists:  A B C D E F G H I J K L M N O P Q R S T U V W X Y Z # 

Devils Metal Tabs (ver.1)

Death Angel Tabs
Rating:
3/5 (1 vote)
Devils Metal lessons Tabs too difficult? Try these video lessons and learn fast
                Band: Death Angel

Intro:

GUITAR I(Keep Repeating This Until 1:01)
E|---------7-|
B|---7-3-5---|
G|-5---------|
D|-----------|
A|-----------|
E|-----------|

Guitar II(Start Around 20 seconds. End Around 50 Seconds)
E|---------|
B|---------|
G|---------|
D|--2--(2)-|
A|--2--(2)-|
E|--0--(0)-|

GUITAR III(Start Around 51 Seconds. End At 1:00)
E|---------------------------|
B|---------------------------|(X 2)
G|---------------------------|
D|---------------------------|
A|---------------------------|
E|-0-0-0-0-0-0-0-0-0-0-0-0-0-|
PM . . . . . . . . . . . . .

Verse:

Guitar I
E|-------------------------------------------------------------------|
B|-------------------------------------------------------------------|
G|-------------------------------------------------------------------|
D|-------------------------------------------------------------------|
A|----------5----------9----------5----------9----------5----------9-|
E|-55555555-3-55555555-7-55555555-3-55555555-7-55555555-3-55555555-7-|
PM ........   ........   ........   ........   ........   ........

E|-----------------------|
B|-----------------------|(X 2)
G|-----------------------|
D|-----------------------|
A|----------5----------9-|
E|-55555555-3-55555555-7-|
PM ........   ........

Guitar II (Start When Guitar One Is Half Way Through. Do It For This Part Only Though)

E|-------------|
B|-------------|(X 4)
G|-------------|
D|-14-----(14)-|
A|-12-----(12)-|
E|-------------|

Chorus:(Bit Slower Than The Verse)

E|-------------------------------------|
B|-------------------------------------|
G|-------------------------------------|
D|-----------------3-----------------5-|
A|-----------------1-----------------3-|
E|-0-0-0-0-0-0-0-0---0-0-0-0-0-0-0-0---|
PM . . . . . . . .   . . . . . . . . 

Verse:

E|-------------------------------------------------------------------|
B|-------------------------------------------------------------------|
G|-------------------------------------------------------------------|
D|-------------------------------------------------------------------|
A|----------5----------9----------5----------9----------5----------9-|
E|-55555555-3-55555555-7-55555555-3-55555555-7-55555555-3-55555555-7-|
PM ........   ........   ........   ........   ........   ........

E|-----------------------|
B|-----------------------|(X 4)
G|-----------------------|
D|-----------------------|
A|----------5----------9-|
E|-55555555-3-55555555-7-|
PM ........   ........
            
Submit corrections

comments powered by Disqus
↑ Back to top | Death Angel Tabs for Devils Metal. Lyrics for acoustic guitar and electric guitar. Tablatures and chords are parodies/interpretations of the original songs. You may use it for private study, scholarship, research or language learning purposes only