>
 >
3rd Floor

3rd Floor Guitar Tabs

Death Angel - 3rd Floor chords, tabs, tablatures, lyrics

Guitar lessons | Add/correct | Request | Top 50 tabs Artists:  A B C D E F G H I J K L M N O P Q R S T U V W X Y Z 0-9

3rd Floor Guitar Tabs – Death Angel

CD, Sheet music, Poster

Do you like 3rd Floor? Share with your friends now
Tabs
Band:  Death Angel

Copyright (c)  (EMI) (1988)
Version 1.0 - (22/06/06)



.  - palm mute           /  - slide up to
\  - slide down to       ~  - vibrato
h  - hammer on           b  - Bend
p  - pull off            Suffixes for bend
t  - tap                 f  - full bend    h - half bend
ph - pinched harmonic    q  - quarter bend t - tap bend
                         p  - pre bend
*  - see comment         ^  - Hold bend    r release bend
x  - Stuccatto           ~  - vibrato bend
,  - slight palm mute    () - ghost note, sustained note
"  - tremolo note        <> - harmonic

Tuning E A D G B E

 Intro

 Fade in
|---------------------------------------------------------|
|-11-9-12-10-11-9-12-10-11-99-1212-1010-1111-99-1212-1010-|
|---------------------------------------------------------|
|---------------------------------------------------------|
|---------------------------------------------------------|
|---------------------------------------------------------|

|----------------------|
|-1111-99-1212-1010-11-|
|----------------------|
|----------------------|
|----------------------|
|----------------------|



 Guitar 1
[-----------------------------------------|
[-----------------------------------------|
[-----------------------------------------|
[-----------------------------------------|
[-----------------------------------------|
[-4-7-66-77-4-7-66-77-4-7-66-77-4-7-66-77-|
[Guitar 2
[-----------------------------------------|
[-----------------------------------------|
[-----------------------------------------|
[-----------------------------------------|
[-6---------6-6-------6-6-------6-6-------|
[-4---------4-4-------4-4-------4-4-4-----|


 Main Riff

  [---PM---]
|-----------|
|-----------|
|-----------|
|-----------|
|-----------|
|-44-7-66-7-| Rpt 8 X


 Verse

 [----------PM-----------]
|---------------------------------|
|---------------------------------|
|-------------------------7-7-7-7-|
|-------------------------7-7-7-7-|
|-6-6-6-6-6-6-6-6-6-6-6-6-5-5-5-5-|
|-4-4-4-4-4-4-4-4-4-4-4-4---------| Rpt 4 X

 [---PM---]
|-----------|
|-----------|
|-----------|
|-----------|
|-----------|
|-4p1-33p1--| Rpt 8 X

 Guitar 1
 [PM]  [--PM--]   phph
[-----------------------------|
[-----------------------------|
[---------------------7-7-7-7-|
[---------------------7-7-7-7-|
[-----------------6-5-5-5-5-5-|
[-4-4-3-4-4-4-4-1-------------|
[Guitar 2
[-----------------------------|
[-----------------------------|
[---------------------7-7-7-7-|
[---------------------7-7-7-7-|
[-6-------------------5-5-5-5-|
[-----------------------------|

 Rpt Verse with addition guitar

  [---PM--]
|----------|
|----------|
|-7p4-66p4-|
|----------|
|----------|
|----------| Rpt 4 X

        Bass fill
|----------------------------|
|----------------------------|
|----------------------------|
|-2--------------------------|
|-2--------------------------|
|-0--------------------------|

 Bridge

 Guitar 1
  ~~~~~~   h~~~~~~ ~~~~~    ~~~~~ ~~~~~~   h~~~~~~ ~~~~~   ~~~~~
[-------------------------------------------------------------------|
[-------------------------------------------------------------------|
[-------------------------------------------------------------------|
[--------7-8-------------7-6-------------7-8-------------7-6--------|
[-7---------------7--------------7----------------7-----------------|
[-------------------------------------------------------------------|
[Guitar 2
[ ~~~~~~  h~~~~~~ ~~~~~   ~~~~~
[-------------------------------------------------------------------|
[-------------------------------------------------------------------|
[-------------------------------------------------------------------|
[-------------------------------------------------------------------|
[-2------0-1------2------1-------2------0-1-------2------1----------|
[-0---------------0--------4-----0----------------0--------4--------|
[Guitar 3                                                     trem dive
[-------------------------------------------------------------------|
[--------------------------------------------111212------------<9>--|
[-----------------------------------------8-9-----------------------|
[-------------------------------------------------------------------|
[-------------------------------------------------------------------|
[-------------------------------------------------------------------|


 Chorus
  [--------PM---------]   [PM]   [---PM---]    [PM]   [PM]
|------------------------------------------------------------|
|------------------------------------------------------------|
|------------------------------------------------------------|
|------------------------------------------------------------|
|-2-2-2-2-2-2-2-2-2-2-2-7\2-2-1/-2-2-2-2-2-2-7\2-2-1/-2-2-7\-|
|-0-0-0-0-0-0-0-0-0-0-0-7\0-0-1/-0-0-0-0-0-0-7\0-0-1/-0-0-7\-| Rpt

 Guitar 1
[-----------------------------------------|
[-----------------------------------------|
[-----------------------------------------|
[-----------------------------------------|
[-----------------------------------------|
[-4-7-66-77-4-7-66-77-4-7-66-77-4-7-66-77-|
[Guitar 2
[-----------------------------------------|
[-----------------------------------------|
[-----------------------------------------|
[-----------------------------------------|
[-6---------6-6---------------------------|
[-4---------4-4---------------------------|

 Rpt Main Riff 8 X

|----------------------------|
|----------------------------|
|--------------------7-7-7-7-|
|--------------------7-7-7-7-|
|-6------------------5-5-5-5-|
|-4--------------------------|

 Rpt Verse
 Rpt Bridge with these fills

|-<9>--trem dive-------------|
|----------------------------|
|----------------------------|
|----------------------------|
|----------------------------|
|----------------------------|

    ~~~~~~~~~~~~~~~~~~~~~
|----------------------------|
|-<9>---trem vibrato---------|
|----------------------------|
|----------------------------|
|----------------------------|
|----------------------------|

 Rpt Chorus

 [-----PM------]   [-PM-] [PM-] [-PM--]
|------------------------------------------------|
|------------------------------------------------|
|------------------------------------------------|
|----------------------------------------4---3---|
|---------------33-------3-----3-----3-----3---3-|
|-0-0-0-0-0-0-0-11p0-0-0-1-0-0-1-0-1---1---------|


 Guitar 1
 [-----PM------]   [-PM-] [PM-] [------PM-------]
[------------------------------------------------|
[------------------------------------------------|
[------------------------------------------------|
[------------------------------------------------|
[---------------33-------3-----3-----------------|
[-0-0-0-0-0-0-0-11p0-0-0-1-0-0-1-0-0-0-0-0-0-0-0-|
[Guitar 2
[     h   h   h   h   h   h   h       pick scrapes
[-1p0-1p0-1p0-1p0-1p0-1p0-1p0-1p0-1/-\-\----0----|
[------------------------------------------------|
[------------------------------------------------|
[------------------------------------------------|
[------------------------------------------------|
[------------------------------------------------|

  [----PM----]  [------PM------]
|-----------------------------------------------|
|-----------------------------------------------|
|-----------------------------------------------|
|-------------------------------------4-----4---|
|-------------3-------------------3-----3-----3-|
|-0-0-0-0-0-0-1-0-0-000-0-0-000-1---1-----2-----| Rpt 8 X

 Guitar solo

             [PM]   ~~~~~~   ~~~~        ~~~         
|-----------------------------------------------------7-8-8p7----|
|-----8-8-----------------------------------/7-88p7-----------10-|
|-----8-8-----------7-----/9-----------7------------9------------|
|-/10-----10-8-10-8----------10---9-10---4-----------------------|
|----------------------------------------------------------------|
|----------------------------------------------------------------|

  ~~~~                        h   h   h   h~~~~~[--PM--]
|--------------------------------------------------------------|
|--------------------------------------------------------8--6--|
|-4---5p4p2p0-4---5p4p2p0-2p0-2p0-2p0----------------5-7-7--7--|
|-------------------------------------2p0--------5-7-----------|
|-----------------------------------------2--------------------|
|--------------------------------------------------------------|

         ~~~~~~[PM]   h             h     [----------PM--------]
|----------------------------------------------------------------|
|----------------------------------------------------------------|
|-9--10--9-------------------------------------------------------|
|-9--10--9-----9-10-9-10p9\7-9-10-9-10p9\7-9----7---5---4---2----|
|--------------------------------------------10---9---7---5---3--|
|----------------------------------------------------------------|

 [-----PM-----] h   ~~~~~~~~~~~~~~~~ph~~~~~~~~~~~~~~~~
|------------------------------------------------------|
|------------------------------------------------------|
|------------------------------------7----------b------|
|------------------------------------------------------|
|-5---4---2---------7----------------------------------|
|---7---5---3-2-3p2------------------------------------|


 Lead fill

      h      h      h      h t      h  t    h  t      h  t     
|-10-13p-10-13p-10-13p-10-13-17p10-13-17p10-13-17p10-13-17--|
|-----------------------------------------------------------|
|-----------------------------------------------------------|
|-----------------------------------------------------------|
|-----------------------------------------------------------|
|-----------------------------------------------------------|

 Rpt Chorus

  [--------PM---------]   [PM]   [---PM---]    [PM]   [PM]
|------------------------------------------------------------|
|------------------------------------------------------------|
|------------------------------------------------------------|
|-2-2-2-2-2-2-2-2-2-2-2-7\2-2-1/-2-2-2-2-2-2-7\2-2-1/-2-2-7\-|
|-0-0-0-0-0-0-0-0-0-0-0-7\0-0-1/-0-0-0-0-0-0-7\0-0-1/-0-0-7\-|
|------------------------------------------------------------| Rpt

  [--------PM---------]   [PM]   [---PM---]    [PM]   [PM]
|------------------------------------------------------------|
|------------------------------------------------------------|
|-2-2-2-2-2-2-2-2-2-2-2-7\2-2-1/-2-2-2-2-2-2-7\2-2-1/-2-2-7\-|
|-0-0-0-0-0-0-0-0-0-0-0-7\0-0-1/-0-0-0-0-0-0-7\0-0-1/-0-0-7\-|
|------------------------------------------------------------|
|------------------------------------------------------------| Rpt


  A
                    h    h      h     h
|---------------17-20p17----17-20p17----20fb-20fbr-20fbr19-20p19-|
|-/22-20fb-20fb----------20----------20--------------------------|
|----------------------------------------------------------------|
|----------------------------------------------------------------|
|----------------------------------------------------------------|
|----------------------------------------------------------------|

                                    D
            h        h                 h     h     h     h   
|-17\15-17-20p19p17-20p19p17--------10-13p10-13p10-13p10-13p10---------|
|----------------------------20fb------------------------------13-13fb-|
|----------------------------------------------------------------------|
|----------------------------------------------------------------------|
|----------------------------------------------------------------------|
|----------------------------------------------------------------------|


|----------------------------------------------------------------|
|-r10-------10---------------------------------------------------|
|-----12-10-12brp10-10b10b9----trem dive and vibrato-------------|
|----------------------------------------------------------------|
|----------------------------------------------------7-trem dive-|
|----------------------------------------------------------------|


 [----PM-----]  [------PM-----]     h   [---PM---]
|--------------------------------------------------|
|--------------------------------------------------|
|--------------------------------------------------|
|--------------------------------------------------|
|-------------3-----------------6-5-6p5\3---3---5--|
|-0-0-0-0-0-0-1-0-0-000-0-0-000-----------3---5----|

 [----PM-----]  [--------PM---------]
|------------------------------------------------|
|------------------------------------------------|
|------------------------------------------------|
|-------------------------------------4-----4----|
|-------------3-------------------3-----3-----3--|
|-0-0-0-0-0-0-1-0-0-000-0-0-000-1---1-----2------|

 Rpt above 4 X

 Guitar 1
 [----PM-----]  [------PM-----]     h   [---PM---]
[--------------------------------------------------|
[--------------------------------------------------|
[--------------------------------------------------|
[--------------------------------------------------|
[-------------3-----------------6-5-6p5\3---3---5--|
[-0-0-0-0-0-0-1-0-0-000-0-0-000-----------3---5----|
[Guitar 2
[               [------PM-----]     h   [---PM---]
[--------------------------------------------------|
[--------------------------------------------------|
[--------------------------------------------------|
[--------------------------------------------------|
[-------------3-----------------6-5-6p5\3---3---5--|
[-------------1-0-0-000-0-0-000-----------3---5----|

 Outro solo
                 ~~~~~~   ~~~        ~~~~~~
|----------------------------------------------------7-8-7-8----|
|------------------------------------------7-8-7-8-----------10-|
|-8-8-8------5---7-----9----------7----------------9------------|
|-------10-5---7---------10--9-10---4---------------------------|
|---------------------------------------------------------------|
|---------------------------------------------------------------|

  ~~~~                        h   h   h   h~~~~~[--PM--]
|--------------------------------------------------------------|
|--------------------------------------------------------8--6--|
|-4---5p4p2p0-4---5p4p2p0-2p0-2p0-2p0----------------5-7-7--7--|
|-------------------------------------2p0--------5-7-----------|
|-----------------------------------------2--------------------|
|--------------------------------------------------------------|

         ~~~~~~[PM]   h             h     [----------PM--------]
|----------------------------------------------------------------|
|----------------------------------------------------------------|
|-9--10--9-------------------------------------------------------|
|-9--10--9-----9-10-9-10p9\7-9-10-9-10p9\7-9----7---5---4---2----|
|--------------------------------------------10---9---7---5---3--|
|----------------------------------------------------------------|

 [-----PM-----] h   ~~~~~~~~~~~~~~~~~~~~~~~~~~~~~~~~
|------------------------------------------------------|
|------------------------------------------------------|
|------------------------------------9-----------------|
|------------------------------------------------------|
|-5---4---2---------7----------------------------------|
|---7---5---3-2-3p2------------------------------------|

 To fade




END





Comments


Popular Death Angel tabs & chords
A Room With A View Chords
A Room With A View 1 Tabs
Evil Priest Tabs
Final Death Tabs
Road Mutants Tabs
Sonic Beatdown Tabs
Steal The Crown Intro Tabs
The Devil Incarnate Tabs
Ultra Violence Intro 1 Tabs
Veil Of Deception Tabs


Song lyrics



↑ Back to top | Tablatures and chords are parodies/interpretations of the original songs. You may use it for private study, scholarship, research or language learning purposes only
© 2014 AZChords.com Contact us | Privacy policy | DMCA | Add/correct tabs | Request tabs | Top 50 tabs