>
 >
Tu Se Morta

Tu Se Morta Guitar Tabs

Dead To Fall - Tu Se Morta chords, tabs, tablatures, lyrics

Guitar lessons | Add/correct | Request | Top 50 tabs Artists:  A B C D E F G H I J K L M N O P Q R S T U V W X Y Z 0-9

Tu Se Morta Guitar Tabs – Dead To Fall

CD, Sheet music, Poster

Do you like Tu Se Morta? Share with your friends now
Tabs
Dead To Fall - Tu Se Morta
Everything I Touch Falls To Pieces (2002)
Drop B Tuning BF#BEG#C#

-------------
Key:
-------------
.  Palm Mute
h  Hammer-On
p  Pull-Off
/  Slide Up
\  Slide Down
PH Pinch Harmonic
-------------

NOTE - Spaces are used just to keep both guitar aligned.

(0:00) Riff 1A
 Both Guitars
||-------------------------------------------------------------------|
||-------------------------------------------------------------------|
||-------------------------------------------------------------------|
||------7-------------------------------7-----------10-8-7-----------|
||----------8---7---------------------------8---7----------10-8-7----|
||-0--0---0---0---0-0-0-0-000-000-0-000---0---0---0---------------10-|
      .   .   .   . . . . ... ... . ...   .   .   .


|-------------------------------------------------------------------|
|-------------------------------------------------------------------|
|-------------------------------------------------------------------|
|-----------7---8---------88887-------------7---8---10-8-7----------|
|-------7-------------------------------7------------------10-8-7-8-|
|-8-8-8---8---8---8-8-8-8---------8-8-8---8---8---8-----------------|
  . . .   .   .   . . . .         . . .   .   .   .


|--------------------------------------------------------------------|
|--------------------------------------------------------------------|
|--------------------------------------------------------------------|
|-------7-------------------------------7-----------10-8-7-----------|
|-----------8---7---------------------------8---7----------10-8-7----|
|-0-0-0---0---0---0-0-0-0-000-000-0-000---0---0---0---------------10-|
  . . .   .   .   . . . . ... ... . ...   .   .   .


|-------------------------------------------------------------------||
|-------------------------------------------------------------------||
|-------------------------------------------------------------------||
|-----------7---8---------88887-------------7---8---10-8-7----------||
|-------7-------------------------------7------------------10-8-7-8-||
|-8-8-8---8---8---8-8-8-8---------8-8-8---8---8---8-----------------||
  . . .   .   .   . . . .         . . .   .   .   .


(0:21) Riff 1B
 Left Guitar
||-----------------------------------------------------------------------|
||*----------------------------------------------------------------------|
||-----------------------------------------------------------------------|
||--------7---7----------------------------7---7--------10-8-7-----------|
||*---------------10-------------------------------10----------10-8-7----|
||--0-0-0---0---0----0-0-0-0-000-000-0-000---0---0----0---------------10-|
|   . . .   .   .    . . . . ... ... . ...   .   .    .                  |
|Right Guitar                                                            |
||-----------------------------------------------------------------------|
||*----------------------------------------------------------------------|
||-----------------------------------------------------------------------|
||--------7--------------------------------7------------10-8-7-----------|
||*-----------8---10---------------------------8---10----------10-8-7----|
||--0-0-0---0---0----0-0-0-0-000-000-0-000---0---0----0---------------10-|
    . . .   .   .    . . . . ... ... . ...   .   .    .


|--------------------------------------------------------------------||
|-------------------------------------------------------------------*||
|--------------------------------------------------------------------||
|-----------7---8---------88887-------------7---8---10-8-7-----------||
|-------7-------------------------------7------------------10-8-7-8-*||
|-8-8-8---8---8---8-8-8-8---------8-8-8---8---8---8------------------||
| . . .   .   .   . . . .         . . .   .   .   .                   |
|                                                                     |
|--------------------------------------------------------------------||
|-------------------------------------------------------------------*||
|--------------------------------------------------------------------||
|-----------7---8---------88887-------------7---8---10-8-7-----------||
|-------7-------------------------------7------------------10-8-7-8-*||
|-8-8-8---8---8---8-8-8-8---------8-8-8---8---8---8------------------||
  . . .   .   .   . . . .         . . .   .   .   .


(0:41) Riff 2A
||---------------------------------------------------------------------|
||*--------------------------------------------------------------------|
||----------------------------------5----------------------------------|
||--7---------------8-------------------------------7-------------5h7p5|
||*--------------------------------------------------------------------|
||---------------------------------------------------------------------|
|                                                                      |
|                                                                      |
||---------------------------------------------------------------------|
||*--------------------------------------------------------------------|
||---------------------------------------------------------------------|
||--------7-------------------------------7-----------10-8-7-----------|
||*-----------8---7---------------------------8---7----------10-8-7----|
||--0-0-0---0---0---0-0-0-0-000-000-0-000---0---0---0---------------10-|
    . . .   .   .   . . . . ... ... . ...   .   .   .


|--------------------------------------------------------------------||
|-------------------------------------------------------------------*||
|--------------------------------------------------------------------||
|--------------------------------------------------------------------||
|-8---------------7---------------8---------------7--------5--------*||
|--------------------------------------------------------------------||
|                                                                     |
|                                                                     |
|--------------------------------------------------------------------||
|-------------------------------------------------------------------*||
|--------------------------------------------------------------------||
|-----------7---8---------88887-------------7---8---10-8-7-----------||
|-------7-------------------------------7------------------10-8-7-8-*||
|-8-8-8---8---8---8-8-8-8---------8-8-8---8---8---8------------------||
  . . .   .   .   . . . .         . . .   .   .   .


(1:02) Riff 2B
||---------------------------------------------------------------------|
||*--------------------------------------------------------------------|
||----------------------------------5----------------------------------|
||--7---------------8-------------------------------7------------5h7p5-|
||*--------------------------------------------------------------------|
||---------------------------------------------------------------------|
|                                                                      |
|                                                                      |
||---------------------------------------------------------------------|
||*--------------------------------------------------------------------|
||---------------------------------------------------------------------|
||---------------------------------------------------------------------|
||*-----------------8----------8/10-10--------8p7h8-8--------7---------|
||--0-----------0-0----------------------------------------------------|
                . .

                                                                   4x
|--------------------------------------------------------------------||
|-------------------------------------------------------------------*||
|--------------------------------------------------------------------||
|--------------------------------------------------------------------||
|-8---------------7---------------8---------------7--------5--------*||
|--------------------------------------------------------------------||
|                                                                     |
|                                                                     |
|--------------------------------------------------------------------||
|-------------------------------------------------------------------*||
|--------------------------------------------------------------------||
|--------------------------------------------------------------------||
|-----------10-10-10--------10/12-12--------------10----------------*||
|-8------------------------------------------------------------------||
            .  .


(1:42) Riff 3A
||-------------------------------------------------------------------------|
||-------------------------------------------------------------------------|
||------------------------REST---------------------------------------------|
||------------------------------------------------------------101010108----|
||----------------------------------------------------88887777-------------|
||-------------------------------------------------------------------------|
|                                                                          |
|                                                                          |
||-------------------------------------------------------------------------|
||-------------------------------------------------------------------------|
||-------------------------------------------------------------------------|
||---------8-7--------------8-7--------------8-7--------------101010108----|
||-0-0-8-7-----10-8-0-0-8-7-----10-8-0-0-8-7-----10-8-88887777-------------|
||-0-0--------------0-0--------------0-0-----------------------------------|
   . .              . .              . .


|-------------------------------------------------------------------------||
|-------------------------------------------------------------------------||
|-------------------------------------------------------------------------||
|-------------------------------------------------------------------------||
|-8-8--------------8-8--------------8-8--------------88887777101010107----||
|-8-8--------------8-8--------------8-8-----------------------------------||
| . .              . .              . .                                    |
|                                                                          |
|-------------------------------------------------------------------------||
|-------------------------------------------------------------------------||
|-------------------------------------------------------------------------||
|---------8-7--------------8-7--------------8-7---------------------------||
|-8-8-8-7-----10-8-8-8-8-7-----10-8-8-8-8-7-----10-8-88887777101010107----||
|-8-8--------------8-8--------------8-8-----------------------------------||
  . .              . .              . .


(1:52) Riff 3B
 Both Guitars
||-------------------------------------------------------------------------|
||*------------------------------------------------------------------------|
||-------------------------------------------------------------------------|
||----------8-7--------------8-7--------------8-7--------------101010108---|
||*-0-0-8-7-----10-8-0-0-8-7-----10-8-0-0-8-7-----10-8-88887777------------|
||--0-0--------------0-0--------------0-0----------------------------------|
    . .              . .              . .


|--------------------------------------------------------------------------||
|-------------------------------------------------------------------------*||
|--------------------------------------------------------------------------||
|---------8-7--------------8-7--------------8-7----------------------------||
|-8-8-8-7-----10-8-8-8-8-7-----10-8-8-8-8-7-----10-8-88887777101010107----*||
|-8-8--------------8-8--------------8-8------------------------------------||
  . .              . .              . .


(2:12) Riff 4
 Left Guitar
||-----------------------------------------------------------------------------------|
||*----------------------------------------------------------------------------------|
||----------------------------------5 5 5 5 5 5 5 5 5 5 5 5 5 5 5 5 7777777777778877-|
||--77777777777777778888888888888888-------------------------------------------------|
||*----------------------------------------------------------------------------------|
||-----------------------------------------------------------------------------------|
|                                                                                    |
|Right Guitar                                                                        |
||-----------------------------------------------------------------------------------|
||*----------------------------------------------------------------------------------|
||-----------------------------------------------------------------------------------|
||-----------------------------------------------------------------------------------|
||*-----------------8888888888888888101010101010101010101010101010108888888877777777-|
||--0000000000000000-----------------------------------------------------------------|



|----------------------------------------------------------------------------------|
|----------------------------------------------------------------------------------|
|----------------------------------------------------------------------------------|
|----------------------------------------------------------------------------------|
|-88888888888888887 7 7 7 7 7 7 7 7 7 7 7 7 7 7 7 8 8 8 8 8 8 8 8 8 8 8 8 8 8 8 8 -|
|----------------------------------------------------------------------------------|
|                                                                                  |
|                                                                                  |
|----------------------------------------------------------------------------------|
|----------------------------------------------------------------------------------|
|----------------------------------------------------------------------------------|
|----------------------------------------------------------------------------------|
|-----------------1010101010101010101010101010101012121212121212121212121212121212-|
|-8888888888888888-----------------------------------------------------------------|



|-----------------------------------||
|----------------------------------*||
|-----------------------------------||
|-----------------------------------||
|-7 7 7 7 7 7 7 7 5 5 5 5 5 5 5 5 -*||
|-----------------------------------||
|                                    |
|                                    |
|-----------------------------------||
|----------------------------------*||
|-----------------------------------||
|-----------------------------------||
|-10101010101010101010101010101010-*||
|-----------------------------------||



(2:32) Breakdown/Outro      4x                           8x
||----------------------------|----------------------------|-----------------------|
||*--------------------------*|*--------------------------*|-----------------------|
||-----------REST-------------|----------------------------|--------REST--------3--|
||----------------------------|----------------------------|--------------------PH-|
||*--------------------------*|*-000-0-0-----000-0-0------*|-----------------------|
||----------------------------|--000-0-0-----000-0-0-------|-----------------------|
|                             |  ... . .     ... . .       |                       |
|                             |                            |                       |
||----------------------------|----------------------------|-----------------------|
||*--------------------------*|*--------------------------*|--------------------3--|
||----------------------------|----------------------------|--------------------PH-|
||----------------------------|----------------------------|-----------------------|
||*-000-0-0-----000-0-0------*|*-000-0-0-----000-0-0------*|-----------------------|
||--000-0-0-----000-0-0-------|--000-0-0-----000-0-0-------|-0-0-0-0----0-0-0------|
    ... . .     ... . .          ... . .     ... . .

                       4x
|------------------------|-----------------------|----------------||
|*----------------------*|*---------------------*|----------------||
|--------------------3---|-----------------------|----------------||
|--------------------PH--|-----------------------|----------------||
|*-0--0-0-----0--0-0----*|*-0--0--0-0-0--0--0-0-*|-0--0-----------||
|--0--0-0-----0--0-0-----|--0--0--0-0-0--0--0-0--|-0--0-----------||
|                        |        . .       . .  |                 |
|                        |                       |                 |
|------------------------|-----------------------|----------------||
|*----------------------*|*---------------------*|----------------||
|--------------------3---|-----------------------|----------------||
|--------------------PH--|-----------------------|----------------||
|*-0--0-0-----0--0-0----*|*-0--0--0-0-0--0--0-0-*|-0--0-----------||
|--0--0-0-----0--0-0-----|--0--0--0-0-0--0--0-0--|-0--0-----------||
                                  . .       . .





Comments


Popular Dead To Fall tabs & chords
Bastard Set Of Dreams Bass Tabs
All My Heroes Have Failed Me Tabs
Balance Theory Tabs
Bastard Set Of Dreams Tabs
Bastard Set Of Dreams 1 Tabs
Broken Path Intro Tabs
Master Exploder Tabs
Memory 2 Tabs
Smoke And Mirrors Intro Tabs
Stand Your Ground Tabs


Song lyrics



↑ Back to top | Tablatures and chords are parodies/interpretations of the original songs. You may use it for private study, scholarship, research or language learning purposes only
© 2014 AZChords.com Contact us | Privacy policy | DMCA | Add/correct tabs | Request tabs | Top 50 tabs