>
 >
Torn Self Ready Set Circle Pit

Torn Self Ready Set Circle Pit Guitar Tabs

Dead To Fall - Torn Self Ready Set Circle Pit chords, tabs, tablatures, lyrics

Guitar lessons | Add/correct | Request | Top 50 tabs Artists:  A B C D E F G H I J K L M N O P Q R S T U V W X Y Z 0-9

Torn Self Ready Set Circle Pit Guitar Tabs – Dead To Fall

CD, Sheet music, Poster

Do you like Torn Self Ready Set Circle Pit? Share with your friends now
Tabs
#------------------------------------------------------------------------------##

                       TORN SELF (READY, SET, CIRCLE PIT)
                           As recorded by Dead To Fall
                     (From the 2004 Album VILLIANY & VIRTUE)

Words and Music by Dead To Fall
Arranged by Dead To Fall

Gtr I (B Gb B E Ab Db) - 'Untitled'
Gtr II (B Gb B E Ab Db) - 'Untitled'
Gtr III (B Gb B E Ab Db) - 'Untitled'

 Intro
  Ready, Set, Circle Pit Q=200
  D5
 3/4
  Gtr I
  PM----|    PM    PM-|   PM ~~   PM----|    PM    PM-|     ~
  E S S E E  E E   E  E E E  Q    E S S E E  E E   E  E E E Q
|----------------|--------------|----------------|-------------|
|----------------|--------------|----------------|-------------|
|----------------|--------------|----------------|-------------|
|---------7------|------8-------|---------7------|------5------|
|-0-0-0-0------8-|----------10--|-0-0-0-0------8-|----------7--|
|-0-0-0-0----0---|-0--0---0-----|-0-0-0-0----0---|-0--0---0----|
|
| Gtr II
| PM----|                         PM----|
| E S S E Q.       H.             E S S E Q.       H.
|----------------|--------------|----------------|-------------|
|----------------|--------------|----------------|-------------|
|----------------|--------------|----------------|-------------|
|----------------|--------------|----------------|-------------|
|-0-0-0-0--------|--------------|-0-0-0-0--------|-------------|
|-0-0-0-0--------|--------------|-0-0-0-0--------|-------------|


  D5                              N.C.
                                 4/4
  PM----|    PM    PM-|   PM ~~
  E S S E E  E E   E  E E E  Q    E E E E E E E E   E E E E  E  E E E
|----------------|--------------|-----------------|-------------------||
|----------------|--------------|-----------------|-------------------||
|----------------|--------------|-----------------|-------------------||
|---------7------|------8-------|---7---3---5---3-|---7---5----10---7-||
|-0-0-0-0------8-|----------10--|-8---5---7---5---|-8---7---12----8---||
|-0-0-0-0----0---|-0--0---0-----|-----------------|-------------------||
|
| PM----|
| E S S E Q.       H.             E E E E E E E E   E E E E  E  E E E
|----------------|--------------|-----------------|-------------------||
|----------------|--------------|-----------------|-------------------||
|----------------|--------------|-----------------|-------------------||
|----------------|--------------|---3---0---2---0-|---3---2-----7---3-||
|-0-0-0-0--------|--------------|-5---1---3---1---|-5---3----8----5---||
|-0-0-0-0--------|--------------|-----------------|-------------------||


   "Every one of us is lost.."
    N.C.
   3/4
      PM|   PM    PM|   PM  PM    PM|   PM    PM|   PM  PM
    E E E E E E   E E E E E E   E E E E E E   E E E E E E
||--------------|-------------|-------------|--------------|
||o-------------|-------------|-------------|--------------|
||--------------|-------------|-------------|--------------|
||--------7---3-|-----8---5---|-------7---3-|-----8---5----|
||o-5-----------|-------------|-5-----------|--------------|
||----0-0---0---|-0-0---0---0-|---0-0---0---|-0-0---0---0--|
|
|     PM|   PM    PM|   PM  PM    PM|   PM    PM|   PM  PM
|   E E E E E E   E E E E E E   E E E E E E   E E E E E E
||--------------|-------------|-------------|--------------|
||o-------------|-------------|-------------|--------------|
||--------------|-------------|-------------|--------------|
||--------7---3-|-----8---5---|-------7---3-|-----8---5----|
||o-5-----------|-------------|-5-----------|--------------|
||----0-0---0---|-0-0---0---0-|---0-0---0---|-0-0---0---0--|


  N.C.
                             4/4
    PM|   PM    PM|   PM  PM
  E E E E E E   E E E E E E   E E E E E E E E   E E E E  E  E E E   4x
|-------------|-------------|-----------------|---------------------||
|-------------|-------------|-----------------|--------------------o||
|-------------|-------------|-----------------|---------------------||
|-------7---3-|-----8---5---|---7---3---5---3-|---7---5----10---7---||
|-5-----------|-------------|-8---5---7---5---|-8---7---12----8----o||
|---0-0---0---|-0-0---0---0-|-----------------|---------------------||
|
|   PM|   PM    PM|   PM  PM
| E E E E E E   E E E E E E   E E E E E E E E   E E E E  E  E E E   4x
|-------------|-------------|-----------------|---------------------||
|-------------|-------------|-----------------|--------------------o||
|-------------|-------------|-----------------|---------------------||
|-------7---3-|-----8---5---|---3---0---2---0-|---3---2-----7---3---||
|-5-----------|-------------|-5---1---3---1---|-5---3----8----5----o||
|---0-0---0---|-0-0---0---0-|-----------------|---------------------||


   "This is my counter.."
    D5
    PM--------------|   PM----------------|   PM------|
    S S S S S S S S E E S S S S   S S S S E E S S S S E E  6x
||------------------------------|--------------------------||
||o-----------------------------|-------------------------o||
||------------------------------|--------------------------||
||------------------------------|--------------------------||
||o-0-0-0-0-0-0-0-0-0---0-0-0-0-|-0-0-0-0-0---0-0-0-0-0---o||
||--0-0-0-0-0-0-0-0-0---0-0-0-0-|-0-0-0-0-0---0-0-0-0-0----||


   "Starve the self.."
    N.C.
   3/4
    Gtr I
      PM|   PM    PM|   PM  PM    PM|   PM    PM|   PM  PM
    E E E E E E   E E E E E E   E E E E E E   E E E E E E
||--------------|-------------|-------------|--------------|
||o-------------|-------------|-------------|--------------|
||--------------|-------------|-------------|--------------|
||--------7---3-|-----8---5---|-------7---3-|-----8---5----|
||o-5-----------|-------------|-5-----------|--------------|
||----0-0---0---|-0-0---0---0-|---0-0---0---|-0-0---0---0--|
|
|   Gtr II
|     PM|   PM    PM|   PM  PM    PM|   PM    PM|   PM  PM
|   E E E E E E   E E E E E E   E E E E E E   E E E E E E
||--------------|-------------|-------------|--------------|
||o-------------|-------------|-------------|--------------|
||--------------|-------------|-------------|--------------|
||--------7---3-|-----8---5---|-------7---3-|-----8---5----|
||o-5-----------|-------------|-5-----------|--------------|
||----0-0---0---|-0-0---0---0-|---0-0---0---|-0-0---0---0--|


  N.C.
                             4/4
    PM|   PM    PM|   PM  PM
  E E E E E E   E E E E E E   E E E E E E E E
|-------------|-------------|-----------------|
|-------------|-------------|-----------------|
|-------------|-------------|-----------------|
|-------7---3-|-----8---5---|---7---3---5---3-|
|-5-----------|-------------|-8---5---7---5---|
|---0-0---0---|-0-0---0---0-|-----------------|
|
|   PM|   PM    PM|   PM  PM
| E E E E E E   E E E E E E   E E E E E E E E
|-------------|-------------|-----------------|
|-------------|-------------|-----------------|
|-------------|-------------|-----------------|
|-------7---3-|-----8---5---|---3---0---2---0-|
|-5-----------|-------------|-5---1---3---1---|
|---0-0---0---|-0-0---0---0-|-----------------|


  1.,2.                 3.
                                 G5Bb5 F5G#5
                       6/4
                                 PM
                                 |-3-| |-3-|
  E E E E  E  E E E  3x  E E E E Q Q Q Q Q Q
|--------------------||----------------------|
|-------------------o||----------------------|
|--------------------||----------------------|
|---7---5----10---7--||----7---5-------------|
|-8---7---12----8---o||--8---7---5-8-8-3-6-6-|
|--------------------||----------5-8-8-3-6-6-|
|
|                                PM
|                                |-3-| |-3-|
| E E E E  E  E E E  3x  E E E E Q Q Q Q Q Q
|--------------------||----------------------|
|-------------------o||----------------------|
|--------------------||----------------------|
|---3---2-----7---3--||----3---2-------------|
|-5---3----8----5---o||--5---3---5-8-8-3-6-6-|
|--------------------||----------5-8-8-3-6-6-|


   "..self and soul.."
    D5
   4/4
    Gtrs I, II
    PM  PM----------|        PM  PM------------|
    E E S S S S S S S S Q    E E S S S S S S S S Q
||-------------------------|------------------------|
||o------------------------|------------------------|
||-------------------------|------------------------|
||-------------------------|------------------------|
||o-0---0-0-0---0-0-0------|-0---0-0-0---0-0-0------|
||--0---0-0-0---0-0-0------|-0---0-0-0---0-0-0------|


                           G5Bb5 F5G#5
  PM  PM------------|      PM
                           |-3-| |-3-|
  E E S S S S S S S S Q    Q Q Q Q Q Q
|------------------------|----------------||
|------------------------|---------------o||
|------------------------|----------------||
|------------------------|----------------||
|-0---0-0-0---0-0-0------|-5-8-8-3-6-6---o||
|-0---0-0-0---0-0-0------|-5-8-8-3-6-6----||


    D5          N.C.       D5          N.C.
    Gtr I
    PM  PM----|     ~~~    PM  PM----|     ~~~
    E E S S S S  E  Q.     E E S S S S  E  Q.
||-----------------------|----------------------|
||o----------------------|----------------------|
||--------------12S14----|-------------17S19----|
||---------------x--x----|--------------x--x----|
||o-0---0-0-0---10S12----|-0---0-0-0---15S17----|
||--0---0-0-0------------|-0---0-0-0------------|
|
|   Gtr II
|   PM  PM----|     ~~~    PM  PM----|     ~~~
|   E E S S S S  E  Q.     E E S S S S  E  Q.
||-----------------------|----------------------|
||o----------------------|----------------------|
||---------------5S=7----|-------------10S12----|
||---------------x--x----|--------------x--x----|
||o-0---0-0-0----3S=5----|-0---0-0-0----8S10----|
||--0---0-0-0------------|-0---0-0-0------------|


  D5          N.C.       G5Bb5 F5G#5
  PM  PM----|     ~~~    PM
                         |-3-| |-3-|
  E E S S S S  E  Q.     Q Q Q Q Q Q
|----------------------|---------------||
|----------------------|--------------o||
|-------------12S14----|---------------||
|--------------x--x----|---------------||
|-0---0-0-0---10S12----|-5-8-8-3-6-6--o||
|-0---0-0-0------------|-5-8-8-3-6-6---||
|
| PM  PM----|     ~~~    PM
|                        |-3-| |-3-|
| E E S S S S  E  Q.     Q Q Q Q Q Q
|----------------------|---------------||
|----------------------|--------------o||
|--------------5S=7----|---------------||
|--------------x--x----|---------------||
|-0---0-0-0----3S=5----|-5-8-8-3-6-6--o||
|-0---0-0-0------------|-5-8-8-3-6-6---||


   "With this first step.."
    Slower Q=175
    (Bb)      (Dm)      (F)        (Em)
   3/4
    H.        H.         H.         H.
||----------|---------|----------|---------||
||o---------|---------|----------|--------o||
||----------|---------|----------|---------||
||----------|---------|----------|---------||
||o-5-------|-8-------|-12-------|-10-----o||
||----------|---------|----------|---------||
|
|   H.        H.         H.         H.
||----------|---------|----------|---------||
||o---------|---------|----------|--------o||
||----------|---------|----------|---------||
||----------|---------|----------|---------||
||o-1-------|-5-------|--8-------|--7-----o||
||----------|---------|----------|---------||


    (BbN.C.          (DmN.C.          (F) N.C.          (Em)N.C.
       PM--------|      PM--------|       PM--------|       PM--------|
       |-3-| |-3-|      |-3-| |-3-|       |-3-| |-3-|       |-3-| |-3-|
    Q  E E E E E E   Q  E E E E E E    Q  E E E E E E    Q  E E E E E E  3x
||-----------------|----------------|-----------------|------------------||
||o----------------|----------------|-----------------|-----------------o||
||-----------------|----------------|-----------------|------------------||
||-----------------|----------------|-----------------|------------------||
||o-5--------------|-8--------------|-12--------------|-10--------------o||
||-----0-0-0-0-0-0-|----0-0-0-0-0-0-|-----0-0-0-0-0-0-|-----0-0-0-0-0-0--||
|
|      PM--------|      PM--------|       PM--------|       PM--------|
|      |-3-| |-3-|      |-3-| |-3-|       |-3-| |-3-|       |-3-| |-3-|
|   Q  E E E E E E   Q  E E E E E E    Q  E E E E E E    Q  E E E E E E  3x
||-----------------|----------------|-----------------|------------------||
||o----------------|----------------|-----------------|-----------------o||
||-----------------|----------------|-----------------|------------------||
||-----------------|----------------|-----------------|------------------||
||o-1--------------|-5--------------|--8--------------|--7--------------o||
||-----0-0-0-0-0-0-|----0-0-0-0-0-0-|-----0-0-0-0-0-0-|-----0-0-0-0-0-0--||


  (Bb)      (Dm)      (F)        N.C.
                                  ~~~
  H.        H.         H.         H.
|---------|---------|----------|--------||
|---------|---------|----------|--------||
|---------|---------|----------|--------||
|---------|---------|----------|-[7]----||
|-5-------|-8-------|-12-------|--------||
|---------|---------|----------|--------||
|
| H.        H.         H.         H.
|---------|---------|----------|--------||
|---------|---------|----------|--------||
|---------|---------|----------|--------||
|---------|---------|----------|--------||
|-1-------|-5-------|--8-------|--7-----||
|---------|---------|----------|--------||


 "I let myself die.."
  Dancefight Q=138
  D5
 4/4
  Gtr I
  PM----------------------------|   PM------------------------|
  S S S S S S S S E E E E   E E E E S S S S S S S S   E. E. E E Q.
|-------------------------|-------------------------|----------------|
|-------------------------|-------------------------|----------------|
|-------------------------|-------------------------|----------------|
|-------------------------|-------------------------|----------------|
|-0-0-0-0-0-0-0-0-0---0---|-0-0-0---0-0-0-0-0-0-0-0-|-0--0--0-0------|
|-0-0-0-0-0-0-0-0-0---0---|-0-0-0---0-0-0-0-0-0-0-0-|-0--0--0-0------|


    D5
    Gtrs I, II
    PM----------------------------|   PM------------------------------|
    S S S S S S S S E E E E   E E E E S S S S S S S S   E. E. E E. E. E
||--------------------------|-------------------------|------------------||
||o-------------------------|-------------------------|-----------------o||
||--------------------------|-------------------------|------------------||
||--------------------------|-------------------------|------------------||
||o-0-0-0-0-0-0-0-0-0---0---|-0-0-0---0-0-0-0-0-0-0-0-|-0--0--0-0--0--0-o||
||--0-0-0-0-0-0-0-0-0---0---|-0-0-0---0-0-0-0-0-0-0-0-|-0--0--0-0--0--0--||


  D5
  Gtr III
   E    E    E    E    E  E  E  E
|---------------------------------|
|------16--------16------16----16-|
|-19--------19--------19----19----|
|---------------------------------|
|---------------------------------|
|---------------------------------|
|
| Gtrs I, II
|  PM------------------------------
|  S S  S S  S S  S S  E  E  E  E
|---------------------------------|
|---------------------------------|
|---------------------------------|
|---------------------------------|
|--0-0--0-0--0-0--0-0--0-----0----|
|--0-0--0-0--0-0--0-0--0-----0----|


                                                               >
   E  E  E  E  E    E    E    E      E   E     E  E  E   E     E  E
|---------------------------------|---------------------------------|
|----16----16------16--------16---|-----16-------16-----16-------16-|
|-19----19----19--------19--------|-19--------19----19--------19----|
|---------------------------------|---------------------------------|
|---------------------------------|---------------------------------|
|---------------------------------|---------------------------------|
|
|-------|      PM------------------------------------------------|
|  E  E  E  E  S S  S S  S S  S S    E.    E.     E  E.    E.     E
|---------------------------------|---------------------------------|
|---------------------------------|---------------------------------|
|---------------------------------|---------------------------------|
|---------------------------------|---------------------------------|
|--0--0--0-----0-0--0-0--0-0--0-0-|--0-----0------0--0-----0------0-|
|--0--0--0-----0-0--0-0--0-0--0-0-|--0-----0------0--0-----0------0-|


  D5
   E    E   H.
|----------------------------|
|------16--------------------|
|-19-------------------------|
|----------------------------|
|----------------------------|
|----------------------------|
|
|  PM-------------------------
|  S S  S S S  S S S E E E E
|----------------------------|
|----------------------------|
|----------------------------|
|----------------------------|
|--0-0--0-0-0--0-0-0-0---0---|
|--0-0--0-0-0--0-0-0-0---0---|


                                               2/4
  W                         W                   H
|-------------------------|-------------------|------*|
|-------------------------|-------------------|------*|
|-------------------------|-------------------|------*|
|-------------------------|-------------------|------*|
|-------------------------|-------------------|------*|
|-------------------------|-------------------|------*|
|
|-----|   PM------------------------------|
| E E E E S S S S S S S S   E. E. E E. E. E     H
|-------------------------|-------------------|------*|
|-------------------------|-------------------|------*|
|-------------------------|-------------------|------*|
|-------------------------|-------------------|------*|
|-0-0-0---0-0-0-0-0-0-0-0-|-0--0--0-0--0--0---|------*|
|-0-0-0---0-0-0-0-0-0-0-0-|-0--0--0-0--0--0---|------*|


Duration Legend
---------------
W - whole; H - half; Q - quarter; E - 8th; S - 16th; T - 32nd; X - 64th; a - acciaccatura
+ - note tied to previous; . - note dotted; .. - note double dotted
Uncapitalized letters represent notes that are staccato (1/2 duration)
Irregular groupings are notated above the duration line
Duration letters will always appear directly above the note/fret number it represents the
duration for.  Duration letters with no fret number below them represent rests.  Multi-
bar rests are notated in the form Wxn, where n is the number of bars to rest for.  Low
melody durations appear below the staff

Tablature Legend
----------------
 h   - hammer-on
 p   - pull-off
 b   - bend
 pb  - pre-bend
 r   - bend release (if no number after the r, then release immediately)
 /\  - slide into or out of (from/to "nowhere")
 s   - legato slide
 S   - shift slide
  - natural harmonic
[n]  - artificial harmonic
n(n) - tapped harmonic
 ~   - vibrato
 tr  - trill
 T   - tap
 TP  - trem. picking
 PM  - palm muting
\n/  - tremolo bar dip; n = amount to dip
 \n  - tremolo bar down
 n/  - tremolo bar up
/n\  - tremolo bar inverted dip
 =   - hold bend; also acts as connecting device for hammers/pulls
 <>  - volume swell (louder/softer)
 x   - on rhythm slash represents muted slash
 o   - on rhythm slash represents single note slash

Misc Legend
-----------
 |  - bar
||  - double bar
||o - repeat start
o|| - repeat end
*|  - double bar (ending)
 :  - bar (freetime)
 $  - Segno
 &  - Coda
Tempo markers -  = BPM(8/16=s8/s16), where s8 = swing 8ths, s16 = swing 16ths


***************************************************************************************
***************************************************************************************





Comments


Popular Dead To Fall tabs & chords
Bastard Set Of Dreams Bass Tabs
Eternal Gates Of Hell Bass Tabs
Balance Theory Tabs
Bastard Set Of Dreams Tabs
Bastard Set Of Dreams 1 Tabs
Blood Of The Moon 1 Tabs
Master Exploder Tabs
Memory Tabs
Preying On The Helpless Tabs
Stand Your Ground Tabs


Song lyrics



↑ Back to top | Tablatures and chords are parodies/interpretations of the original songs. You may use it for private study, scholarship, research or language learning purposes only
© 2014 AZChords.com Contact us | Privacy policy | DMCA | Add/correct tabs | Request tabs | Top 50 tabs