» » »

Stand Your Ground Tabs (ver.1)

Artists:  A B C D E F G H I J K L M N O P Q R S T U V W X Y Z # 

Stand Your Ground Tabs (ver.1)

Dead To Fall
Rating:
5/5 (3 votes)

Hard to play? Try these video lessons and learn fast.
                -----------------------------------------------------------------------
-----------------------------------------------------------------------

Tuning: standard

main riff (tremolo picking)
e|---------------------------------------------------------|
B|---------------------------------------------------------|
G|---------------------------------------------------------|
D|------4-2-0----------------------------------------------|
A|--2---------1-2---222422522422---------------------------|
E|-------------------------------3-0-----------------------|

next part (also tremolo picked)
e|---------------------------------------------------------|
B|---------------------------------------------------------|
G|---------------------------------------------------------|
D|--0-----7--5-4----5-4--2---0-----7--5-4------------------|
A|---------------------------------------------------------|
E|---------------------------------------------------------|

slow chord prog at next part (let ring)
e|---------------------------------------------------------|
B|---------------------------------------------------------|
G|-2----5--------------2-----------------------------------|
D|-2----5----5----2----2-----------------------------------|
A|-0----3----5----2----0-----------------------------------|
E|-0----3----3----0----0-----------------------------------|

mini solo thing after clean chord prog. i dont know the rhythym, sorry.
e|----------------------------------------------------------|
B|----------------------------------------------------------|
G|----------------------------------------------------------|
D|--5----7----9----7h9p7------------------------------------|
A|----------------------9----9/109----7----5----------------|
E|----------------------------------------------------------|

harmony line for the main riff played sometimes (tremolo picked)
e|---------------------------------------------------------|
B|---------------------------------------------------------|
G|---------------------------------------------------------|
D|--0----9-5-4-2-4-----------------------------------------|
A|---------------------------------------------------------|
E|---------------------------------------------------------|


im almost completely positive this is correct, but correct me where you think its wrong.
if you know the song its really easy to figure out where to play each part. see ya later.

| /  slide up
|   slide down
| h  hammer-on
| p  pull-off
| ~  vibrato
| +  harmonic
| x  Mute note
============================================================================
            
Hard to play? Try these video lessons and learn fast. | Correct




comments powered by Disqus
↑ Back to top | Tablatures and chords are parodies/interpretations of the original songs. You may use it for private study, scholarship, research or language learning purposes only