» » »

Dead To Fall, Smoke And Mirrors Tabs (ver.1)

Artists:  A B C D E F G H I J K L M N O P Q R S T U V W X Y Z # 

Smoke And Mirrors Tabs (ver.1)

Dead To Fall Tabs
 Rating:
3.4/5 (5 votes)
Smoke And Mirrors lessons Tabs too difficult? Try these video lessons and learn fast
1
                (Intro)
 I only got this far and I plan to finish this work of art.
 I tab it out by ear and tuning is TOTALLY RIGHT!!!

 Tuning: B F# B E G# C#
 Drop it down 1 1/2 step

 

 Enjoy!                                        PM---| PM---|
             ~                                  |-3-|  |-3-| 
|---------------------------------------------------------------|
|0-------------------------------------------------------------0|
|----------------------------------------------------6------6---|
|--0--3p2p0----------------------7-------6-----------x------x---|
|0----------[4]--5-8-4-7-4-7-4-5---5-4-5---7-5-4-000-4--000-4--0|
|------------------------------------------------000----000-----|

                                               PM---| PM---|
             ~                                  |-3-|  |-3-|   4x
|---------------------------------------------------------------|
|0-------------------------------------------------------------0|
|----------------------------------------------------6------6---|
|--0--3p2p0----------------------7-------6-----------x------x---|
|0----------[4]--5-8-4-7-4-7-4-5---5-4-5---7-5-4-000-4--000-4--0|
|------------------------------------------------000----000-----|

 PM---|PM---|PM---|
|---------------------------------------------------------------|
|---------------------------------------------------------------|
|7-----7-----7----------<7>--10-10-10S12-12-12-12S9--xx-xx------|
|x-----x-----x------<7>-------x--x--x--x--x--x--x-x--xx-xx------|
|5-000-5-000-5-000------------8--8--8S10-10-10-10S7--xx-xx------|
|--000---000---000----------------------------------------------|


PM---|PM---|PM---|
|----------------------------|
|----------------------------|
|7-----7-----7----------<7>--|
|x-----x-----x------<7>------|
|5-000-5-000-5-000-----------|
|--000---000---000-----------|

That's all I have right now I apologize for not tabing out the rest.
I'll be happy to answer any question you have.

Thank you for your time for looking!
I really appreciated!






                                                 
            
Submit corrections

comments powered by Disqus
↑ Back to top | Dead To Fall Tabs for Smoke And Mirrors. Lyrics for acoustic guitar and electric guitar. 1 Tablatures and chords are parodies/interpretations of the original songs. You may use it for private study, scholarship, research or language learning purposes only