>
 >
Preying On The Helpless

Preying On The Helpless Guitar Tabs

Dead To Fall - Preying On The Helpless chords, tabs, tablatures, lyrics

Guitar lessons | Add/correct | Request | Top 50 tabs Artists:  A B C D E F G H I J K L M N O P Q R S T U V W X Y Z 0-9

Preying On The Helpless Guitar Tabs – Dead To Fall

CD, Sheet music, Poster

Do you like Preying On The Helpless? Share with your friends now
Tabs
Dead To Fall - Preying On The Helpless
Everything I Touch Falls To Pieces (2002)
Drop B Tuning BF#BEG#C#

-------------
Key:
-------------
.  Palm Mute
h  Hammer-On
p  Pull-Off
/  Slide Up
\  Slide Down
AH Artifical Harmonic
-------------

Left Guitar Top
Right Guitar Bottom


 (0:00)                                               4x
||------------------------------------------------------|----------------------||
||*----------------------------------------------------*|----------------------||
||--------------------------------------REST------------|----------------------||
||------------------------------------------------------|----------------------||
||*-----7-8-------7-8---0-----------0-0------0---------*|-----7-8-------7-8-10-||
||--/10-------/10-------0-----------0-0------0----------|-/10-------/10--------||
|                                   . .                 |                       |
|                                                       |                       |
||------------------------------------------------------|----------------------||
||*----------------------------------------------------*|----------------------||
||--------------------------------------REST------------|----------------------||
||------5-7-------5-7-----------------------------------|-----5-7-------5-7-8--||
||*---------------------0-----------0-0------0---------*|----------------------||
||--/10-------/10-------0-----------0-0------0----------|-/10-------/10--------||
                                    . .

                                                                 _______________________
 (0:34)                                                         |1,2,3,4,5,6,7        8x|
||--------------------------------------------------------------|-----------------------|
||*-------------------------------------------------------------|----------------------*|
||--------------------------------------------------------------|-----------------------|
||--------------------------------------------------------------|-----------------------|
||*---------------------------------------7-8-------------------|-77778888101010108877-*|
||--101010-101010-101010-101010-888-888-88------000-000-000-000-|-----------------------|
|   . . .  . . .  . . .  . . .  ... ... ..      ... ... ... ... |                       |
|                                                               |                       |
||--------------------------------------------------------------|-----------------------|
||*-------------------------------------------------------------|----------------------*|
||--------------------------------------------------------------|-----------------------|
||----------------------------------------5-7-------------------|-555577778 8 8 8 7755--|
||*-------------------------------------------------------------|----------------------*|
||--101010-101010-101010-101010-888-888-88------000-000-000-000-|-----------------------|
    . . .  . . .  . . .  . . .  ... ... ..      ... ... ... ...

 __________________________________
|8                                 |(1:15)                            8x
|----------------------------------|------------------------------------||
|----------------------------------|*----------------------------------*||
|---REST----------------------5----|------------------------------5-----||
|-------------------------5-6------|--------------------------5-6-------||
|-0--------------------------------|*-0-1-3-0-1-4-0-1-3-0-1-4----------*||
|-0--------------------------------|--0-1-3-0-1-4-0-1-3-0-1-4-----------||
| .                           AH   |  . . . . . . . . . . . .     AH     |
|                                  |                                     |
|----------------------------------|------------------------------------||
|----------------------------------|*----------------------------------*||
|----------------------------------|------------------------------------||
|-----------------------------3----|------------------------------3-----||
|-0-1-3-0-1-4-0-1-3-0-1-4-3-4------|*-0-1-3-0-1-4-0-1-3-0-1-4-3-4------*||
|-0-1-3-0-1-4-0-1-3-0-1-4----------|--0-1-3-0-1-4-0-1-3-0-1-4-----------||
  . . . . . . . . . . . .     AH      . . . . . . . . . . . .     AH


 (1:46)
||----------------------------------------------------------------------------------|
||----------------------------------------------------------------------------------|
||---REST---------------------------------------------------------------------------|
||----------------------------------------------------------------------------------|
||-0--------------------------------------------------------------------------7-8---|
||-0--------------------------------------------------------------------------------|
|  .                                                                                |
|                                                                                   |
||----------------------------------------------------------------------------------|
||----------------------------------------------------------------------------------|
||----------------------------------------------------------------------------------|
||----------------------------------------------------------------------------5-7---|
||-----------------77778888101010108877---------------------------------------------|
||-000-000-000-000----------------------101010-101010-101010-101010-888-888-88------|
   ... ... ... ...                      . . .  . . .  . . .  . . .  ... ... ..


                                                                                    3x
|------------------------------------------------------------------------------------||
|*----------------------------------------------------------------------------------*||
|------------------------------------------------------------------------------------||
|------------------------------------------------------------------------------------||
|*-----------------77778888101010108877---------------------------------------7-8---*||
|--000-000-000-000----------------------101010-101010-101010-101010-888-888-88-------||
|  ... ... ... ...                      . . .  . . .  . . .  . . .  ... ... ..        |
|                                                                                     |
|------------------------------------------------------------------------------------||
|*----------------------------------------------------------------------------------*||
|------------------------------------------------------------------------------------||
|------------------555577778 8 8 8 7755---------------------------------------5-7----||
|*----------------------------------------------------------------------------------*||
|--000-000-000-000----------------------101010-101010-101010-101010-888-888-88-------||
   ... ... ... ...                      . . .  . . .  . . .  . . .  ... ... ..


 (2:06)                                                                            4x
||-----------------------------------------------------------------------------------||
||*---------------------------------------------------------------------------------*||
||-----------------------------------------------------------------------------------||
||-----------------------------------------------------------------------------------||
||*-----7---7h8p7---7-----7---7h8p7---7-------7----7h8p7----7-------7----7h8p7----7-*||
||--8-8---8-------8---8-8---8-------8---10-10---10-------10---10-10---10-------10----||
|   . .   .       .   . .   .       .   .  .    .        .    .  .    .        .      |
|                                                                                     |
||-----------------------------------------------------------------------------------||
||*---------------------------------------------------------------------------------*||
||-----------------------------------------------------------------------------------||
||-----------------------------------------------------------------------------------||
||*-----7---7h8p7---7-----7---7h8p7---7-------7----7h8p7----7-------7----7h8p7----7-*||
||--8-8---8-------8---8-8---8-------8---10-10---10-------10---10-10---10-------10----||
    . .   .       .   . .   .       .   .  .    .        .    .  .    .        .


 (2:26)                                      3x
||---------------------------------------------|-----------------------------------------------|
||*-------------------------------------------*|-----------------------------------------------|
||---------------------------------------------|--------------------------5----7-5---5---------|
||-------------7----8----7\5-------------------|------------7----8----7\5----------8---8-7-5-7-|
||*-0------------------------7-----5---7---3--*|-0---------------------------------------------|
||--0------0-0----0----0-------------------3---|-0------0-0----0----0--------------------------|
|          . .    .    .                   .   |        . .    .    .                          |
|                                              |                                               |
||---------------------------------------------|-----------------------------------------------|
||*-------------------------------------------*|-----------------------------------------------|
||---------------------------------------------|-----------------------------------------------|
||---------------------------------------------|-----------------------------------------------|
||*-0----------8----10---8\7---------------3--*|-0----------8----10---8\7------8-108-7-8-7-5-7-|
||--0------0-0----0----0-----10----8---10--3---|-0------0-0----0----0-----10-------------------|
           . .    .    .                   .            . .    .    .



|-----------------------------------------------------------------------------------------||
|-----------------------------------------------------------------------------------------||
|--------------------------------------------------------------------5----7-5---5---------||
|------------7----8----7\5-----------------------------7----8----7\5----------8---8-7-5-7-||
|-0------------------------7-----5---7---3--0---------------------------------------------||
|-0------0-0----0----0-------------------3--0------0-0----0----0--------------------------||
|        . .    .    .                   .         . .    .    .                           |
|                                                                                          |
|-----------------------------------------------------------------------------------------||
|-----------------------------------------------------------------------------------------||
|-----------------------------------------------------------------------------------------||
|-----------------------------------------------------------------------------------------||
|-0----------8----10---8\7---------------3--0----------8----10---8\7------8-108-7-8-7-5-7-||
|-0------0-0----0----0-----10----8---10--3--0------0-0----0----0-----10-------------------||
         . .    .    .                   .         . .    .    .


 (3:01)
||------------------------------------------------------------------------------|
||------------------------------------------------------------------------------|
||--------------------------------------------------------------5---------------|
||--------------------7h8p7-----------7h8p7-10--------7h8p7-7-----8-7-5-------7-|
||-0------------------------5-------------------------------------------8-7-5---|
||-0-----------0-0--0----------0-0--0----------0-0--0---------------------------|
|              . .  .          . .  .          . .  .                           |
|                                                                               |
||------------------------------------------------------------------------------|
||------------------------------------------------------------------------------|
||------------------------------------------------------------------------------|
||------------------------------------------------------------------------------|
||-0----------------------------------------------------------------------------|
||-0----------------------------------------------------------------------------|



                                                                 8x
|-------------------------------------------------------------------|
|*-----------------------------------------------------------------*|
|--------------------------------------------------5----------------|
|---------7h8p7-----------7h8p7-10--------7h8p7-7----8-7-5-------7--|
|*--------------5------------------------------------------8-7-5---*|
|--0-0--0----------0-0--0----------0-0--0---------------------------|
|  . .  .          . .  .          . .  .          . . . . . . . .  |
|                                                                   |
|-------------------------------------------------------------------|
|*-----------------------------------------------------------------*|
|--------------------------------------------------5----------------|
|---------7h8p7-----------7h8p7-----------7h8p7------8-7-5-------7--|
|*--------------5---------------8---------------5----------8-7-5---*|
|--0-0--0----------0-0--0----------0-0--0---------------------------|
   . .  .          . .  .          . .  .          . . . . . . . .


                  4x
|-------------------|-------------------||
|*-----------------*|*-8---------------*||
|--5----------------|----109-7-------9--||
|----8-7-5-------7--|----------109-7----||
|*---------8-7-5---*|*-----------------*||
|-------------------|-------------------||
|  . . . . . . . .                       |
|                                        |
|-------------------|-------------------||
|*-----------------*|*-----------------*||
|--5----------------|--5----------------||
|----8-7-5-------7--|----8-7-5-------7--||
|*---------8-7-5---*|*---------8-7-5---*||
|-------------------|-------------------||
   . . . . . . . .


 (3:54)                                              4x
||------------------|----------------------------------||
||------------------|*--------------------------------*||
||------------------|------------------------------5---||
||------------------|--------------------------5-6-----||
||-0-----------10\--|*-0-1-3-0-1-4-0-1-3-0-1-4--------*||
||-0-----------10\--|--0-1-3-0-1-4-0-1-3-0-1-4---------||
|                   |  . . . . . . . . . . . .     AH   |
|                   |                                   |
||------------------|----------------------------------||
||------------------|*--------------------------------*||
||------------------|----------------------------------||
||------------------|------------------------------3---||
||-0-----------10\--|*-0-1-3-0-1-4-0-1-3-0-1-4-3-4----*||
||-0-----------10\--|--0-1-3-0-1-4-0-1-3-0-1-4---------||
                       . . . . . . . . . . . .     AH


 (4:12)                                           4x
||--------------------------------------------------|---------||
||*------------------------------------------------*|---------||
||--------------------------------------------5-----|---------||
||--------------------------------------5--6--------|---------||
||*-0--1--3--0--1--4--0--1--3--0--1--4-------------*|-0-------||
||--0--1--3--0--1--4--0--1--3--0--1--4--------------|-0-------||
|   .  .     .  .     .  .     .  .           AH    | .        |
|                                                   |          |
||--------------------------------------------------|---------||
||*------------------------------------------------*|---------||
||--------------------------------------------5-----|---------||
||--------------------------------------5--6--------|---------||
||*-0--1--3--0--1--4--0--1--3--0--1--4-------------*|-0-------||
||--0--1--3--0--1--4--0--1--3--0--1--4--------------|-0-------||
    .  .     .  .     .  .     .  .           AH      .


Tried to space the notes accordingly to get a sense of the rhythm, but it's nowhere
near perfect, so listen to the song if you having trouble getting it. In case it 
isn't obvious enough, they are "10's", not "1-0-1-0's"... space was cramped.





Comments


Popular Dead To Fall tabs & chords
Bastard Set Of Dreams 1 Tabs
Blood Of The Moon Tabs
Broken Path Intro Tabs
Doraematu Tabs
Master Exploder Tabs
Memory 1 Tabs
Memory 2 Tabs
Torn Self Ready Set Circle Pit Tabs
Tu Se Morta Tabs
You've Already Died Tabs


Song lyrics



↑ Back to top | Tablatures and chords are parodies/interpretations of the original songs. You may use it for private study, scholarship, research or language learning purposes only
© 2014 AZChords.com Contact us | Privacy policy | DMCA | Add/correct tabs | Request tabs | Top 50 tabs