» » »

Dead To Fall, Master Exploder Tabs (ver.1)

Artists:  A B C D E F G H I J K L M N O P Q R S T U V W X Y Z # 

Master Exploder Tabs (ver.1)

Dead To Fall Tabs
 Rating:
3.8/5 (5 votes)
Master Exploder lessons Tabs too difficult? Try these video lessons and learn fast
                I was looking for the song one day and couldn't find a tab for it so I decided to try to 
it.  It took me about 30 mins so it could be sketchy.  This is also my first tab for 
site.

Riff 1

B  |-----------------------------------------|
F# |-----------------------------------------|
B  |---10-9---------------7-5----------------|
E  |---------12^10^8------------8^7^5--------|
G# |-----------------8-7--------------5-3----|
C# |-----------------------------------------|
p.m.                 . .              . .

Riff 2

B  |-----------------------------------------------------------------|
F# |-----------------------------------------------------------------|
B  |-----------------------------------------------------------------|
E  |-0--0--0--000-000--0--0--0--000-000----2-2-2-2-2-2--1-1-1--5\2/6-|
G# |-0--0--0--000-000--0--0--0--000-000----2-2-2-2-2-2--1-1-1--5\2/6-|
C# |-0--0--0--000-000--0--0--0--000-000----2-2-2-2-2-2--1-1-1--5\2/6-|
p.m. .  .  .  ... ...  .  .  .  ... ...    . . . . . .  . . .

Riff 3
                                 Do this once after your done with last riff
B  |-----------------------------|--------------------------------------|
F# |-----------------------------|--------------------------------------|
B  |-----------------------------|--------------------------------------|
E  |----------------7^5-8^5------|------8^7^5-----------0-0-0-0-0-0-----|
G# |--5-5-5-3^5-5----------------|------------8^7^5-7---0-0-0-0-0-0-----|
C# |-----------------------------|----------------------0-0-0-0-0-0-----|
p.m.  . . .     .                                       . . . . . .

Riff 4

B  |----------------------------------------------------|
F# |----------------------------------------------------|
B  |----------------------------------------------------|
E  |---3333-2222-5555-3333-7777-8888-5555-7777----------|
G# |----------------------------------------------------|
C# |----------------------------------------------------|
p.m.

Riff 5

B  |----------------------------------------------------|
F# |----------------------------------------------------|
B  |----------------------------------------------------|
E  |----3-3-3-2-2-2-5-5-5-3-3-3-7-7-7-8-8-8-5-5-5-7-7-7-|
G# |----------------------------------------------------|
C# |----------------------------------------------------|
p.m.    . . . . . . . . . . . . . . . . . . . . . . . .

Riff 6

Guitar 1

B  |----8^6^5-6^5^3-3-5-3-----|---15^13^12-13^12^10-10-12-10---|
F# |--------------------------|--------------------------------|
B  |--------------------------|--------------------------------|
E  |--------------------------|--------------------------------|
G# |--------------------------|--------------------------------|
C# |--------------------------|--------------------------------|
p.m.

Guitar 2

B  |----------------------------------------------------|
F# |----------------------------------------------------|
B  |----------------------------------------------------|
E  |---2----222----10----101010----7----777---777-------|
G# |---2----222----10----101010----7----777-7-777-5^7---|
C# |---2----222----10----101010----7----777---777-------|
p.m.        ...          . . .          ...   ...

Riff 7

B  |----------------------------------------------------|
F# |----------------------------------------------------|
B  |----------------------------------------------------|
E  |--5-2-2-5-2-2-2-2-0-0-5-2-2-5-2-2-----2-2-----------|
G# |----------------------------------5-5---------------|
C# |----------------------------------------------------|
p.m.    . .   . .           . .   . . . .


B  |----------------------------------------------------|
F# |----------------------------------------------------|
B  |----------------------------------------------------|
E  |--5-2-2-5-2-2-2-2-0-0-5-2-2-5-2-2-----5--2----------|
G# |-----------------------------------2--5--2----------|
C# |--------------------------------------5--2----------|
p.m.    . .   . .           . .   . .  .  .  .

Riff 8

B  |----------------------------------------------------|
F# |----------------------------------------------------|
B  |----------------------------------------------------|
E  |---2----222----10----101010----7----777---777-------|
G# |---2----222----10----101010----7----777-7-777-5^7---|
C# |---2----222----10----101010----7----777---777-------|
p.m.        ...          . . .          ...   ...

Riff 2

B  |-----------------------------------------------------------------|
F# |-----------------------------------------------------------------|
B  |-----------------------------------------------------------------|
E  |-0--0--0--000-000--0--0--0--000-000----2-2-2-2-2-2--1-1-1--5\2/6-|
G# |-0--0--0--000-000--0--0--0--000-000----2-2-2-2-2-2--1-1-1--5\2/6-|
C# |-0--0--0--000-000--0--0--0--000-000----2-2-2-2-2-2--1-1-1--5\2/6-|
p.m. .  .  .  ... ...  .  .  .  ... ...    . . . . . .  . . .


Riff 9

B  |-----------------------------------------------------------------|
F# |-----------------------------------------------------------------|
B  |-----------------------------------------------------------------|
E  |--0----0-0-0--0-0-0--0--0--0---2---2---1----5\2/6----0-----------|
G# |--0----0-0-0--0-0-0--0--0--0---2---2---1----5\2/6----0-----------|
C# |--0----0-0-0--0-0-0--0--0--0---2---2---1----5\2/6----0-----------|
p.m.  .    . . .  . . .  .  .  .   .   .   .

Order:

Riff 1 x1
Riff 2 x4
Riff 3 x16
Riff 4 x4
Riff 5 x4
Riff 6 (Guitar 2) x4
Riff 7 x2
Riff 8 x4
Riff 2 x3
Riff 9 x1

Enjoy!
            
Submit corrections

comments powered by Disqus
↑ Back to top | Dead To Fall Tabs for Master Exploder. Lyrics for acoustic guitar and electric guitar. Tablatures and chords are parodies/interpretations of the original songs. You may use it for private study, scholarship, research or language learning purposes only