>
 >
Doraematu

Doraematu Guitar Tabs

Dead To Fall - Doraematu chords, tabs, tablatures, lyrics

Guitar lessons | Add/correct | Request | Top 50 tabs Artists:  A B C D E F G H I J K L M N O P Q R S T U V W X Y Z 0-9

Doraematu Guitar Tabs – Dead To Fall

CD, Sheet music, Poster

Do you like Doraematu? Share with your friends now
Tabs
Submitted by Frank to the maxxx


e|-------------------------------------------------------------------------------|
B|-------------------------------------------------------------------------------|
G|-------------------------------------------------------------------------------| 
D|-2---2-3-2-------3---3-5-3--------5---5---5----2---2-3-2-----0---0-2-0---------|
A|-0---------------5----------------2-----3------3-------------2------------4----|
E|--------------------------------------------------------------------------5----|
  
e|-------------------------------------------------------------------------------|
B|-------------------------------------------------------------------------------|
G|-------------------------------------------------------------------------------|  
D|------------3----5-3-5-2----3-2-3-0---3-2-0-0----------------------------------|
A|-4--4-5-7---5----7-5-2-3----3-3-2-2---2-2-2-0----4-4---------------------------|
E|-5-----------------------------------------------5-5---------------------------|

e|-------------------------------------------------------------------------------|
B|-------------------------------------------------------------------------------|
G|-------------------------------------------------------------------------------|
D|------------3--3-5-7---5--5-7-8---7-8--7-5---5-3-5-3---3-2-3-0---3-2-0-0-------|
A|-4--4-5-7---5----------7----------8-10-8-7---7-5-2-2---3-3-2-2---2-2-2-0---4-4-|
E|-5-------------------------------------------------------------------------5-5-|
                                 * 
e|-----------------3-------------0-2-3-5-7-5--7--------5---0------0-------------|
B|-----------------------------------------------0--------0---0------3-----------|
G|-----------------3-------------------------------0------------0------0---------|
D|-------------------------------------------------------------------------------|
A|-4---7---5---3---3-------------------------------------------------------------|
E|-5---4---2---2------------------------------0--------------------0-------------|
                                                          *Repeat once at asterisk    
e|-0--2--3--2--3-2^3^2^0--0------5---0------0-------0----=-0------2--------|
B|-0--0--0--0--0--0-----------0------0---0-------3------2--=---0------0------|
G|------------------------------0----------0-------0------0=-----0------2----|
D|---------------------------------------------------------=-----------------|
A|---------------------------------------------------------=--------2--------|
E|-------------------------0------------------0------------=-----------------|

e|-3------2------2------3------2------0-------3------2------0----------------|
B|---0------0------0------0------0-------0------0------0------0--------------|
G|-----3------2------2------3------2-------0------0------0------0------------|
D|---------------------------------------------------------------------------|
A|---------------2--------------------0--------------------------------------|
E|---------------------------------------------------------------------------|
                *      
e|-0-2-3-5-7-5--7------7------7------8------8------8------5------5------5----|
B|----------------0------0------0------0------0------0------0------0------0--|
G|------------------0------0------0------0------0------0------0------0-------|
D|---------------------------------------------------------------------------|
A|---------------------------------------------------------------------------|
E|--------------0--------------------0--------------------0------------------|


e|----7-----7------7------3------3------3------5-----5------5------2------2--|
B|------0-----0------0------0------0------0------0-----0------0------0-------|
G|0-------0-----0------0------0------0------0------0-----0------0------0-----|
D|---------------------------------------------------------------------------|
A|---------------------------------------------------------------------------|
E|----0-------------------0--------------------0-------------------0---------|

                                                                     Repeat from asterisk
e|------2------3------3-----3-----=------------------------------------------|
B|-0------0------0------0-----0---=------------------------------------------|
G|---0------0------0------0-----0-=------------------------------------------| 
D|--------------------------------=------------------------------------------|
A|--------------------------------=------------------------------------------|
E|-------------0------------------=------------------------------------------|


e|-2-----2-----2-----2-----3-----2------0------3------2------0---------------|
B|---0-----0-----0-----0-----0-----0------0------0------0--------------------|
G|-----2-----2-----2-----2-----3-----2------0------0------0------------------|
D|---------------------------------------------------------------------------|
A|-2-----------------2------------------0------------------------------------|
E|---------------------------------------------------------------------------|


e|--------5-7-8-8------8------8------7------7------7------8------8------8----|
B|--5-7-8---------5------5------5------5------5------5------5------5------5--|
G|------------------5------5------5------5------5------5------5------5-------|
D|---------------------------------------------------------------------------|
A|--------------0--------------------0--------------------0------------------|
E|---------------------------------------------------------------------------|


e|----7------7------7------7------7------7------5------5------5------7------7|
B|------5------5------5------0------0------0------0------0------0------0-----|
G|5-------5------5------5------0------0------0------0------0------0------0---|
D|---------------------------------------------------------------------------|
A|----0----------------------------------------------------------------------|
E|-------------------------0--------------------0--------------------0-------|


e|-----7------5------5------5------8------8------8------7------7------7------|
B|0------0------0------0------0------5------5------5------5------5------5----|
G|--0------0------0------0------0------5------5------5------5------5------5--|
D|---------------------------------------------------------------------------|
A|---------------------------------0--------------------0--------------------|
E|------------0--------------------------------------------------------------|


e|-8------8------8------7------7------7------7------7------7------5--------5-|
B|---5------5------5------5------5------5------0------0------0-------0-------|
G|-----5------5------5------5------5------5------0------0------0-------0-----|
D|---------------------------------------------------------------------------|
A|-0--------------------0----------------------------------------------------|
E|-------------------------------------------0--------------------0----------|


e|------5------3-----3------3------2------2------2------2-------2------2-----|
B|-0------0------0-----0------0------0------0------0-------0------0------0---|
G|---0------0------0-----0------0------0------0------0-------2------2------2-|
D|---------------------------------------------------------------------------|
A|------------------------------------------------------2--------------------|
E|-------------0-------------------0-----------------------------------------|

          * slow it down a bit                                           * harm.  
e|-2------3-/--2-----------------------0--------------------0------------12--|
B|---0---0-/----0-----------------------0----------------0------------------|
G|-----2-3-/------------------------------0------------0--------------------|
D|-------------------------------------------4--------4----------------------|
A|-2-----3------------------------------------2----2------------------------|
E|--------------------------0---------------------0--------------0-----------|

Thanks to Antone Jones, he's a really cool dood and he wrote these.

DTF RULES!!!





Comments


Popular Dead To Fall tabs & chords
Bastard Set Of Dreams Bass Tabs
Balance Theory Tabs
Bastard Set Of Dreams Tabs
Blood Of The Moon Tabs
Cost Of A Good Impression Tabs
Memory Tabs
Memory 2 Tabs
Preying On The Helpless Tabs
Stand Your Ground Tabs
Torn Self Ready Set Circle Pit Tabs


Song lyrics



↑ Back to top | Tablatures and chords are parodies/interpretations of the original songs. You may use it for private study, scholarship, research or language learning purposes only
© 2014 AZChords.com Contact us | Privacy policy | DMCA | Add/correct tabs | Request tabs | Top 50 tabs