» » »

Dead To Fall, Cost Of A Good Impression Tabs (ver.1)

Artists:  A B C D E F G H I J K L M N O P Q R S T U V W X Y Z # 

Cost Of A Good Impression Tabs (ver.1)

Dead To Fall Tabs
 Rating:
4/5 (4 votes)
Cost Of A Good Impression lessons Tabs too difficult? Try these video lessons and learn fast
                Dead To Fall - Cost Of A Good Impression
Everything I Touch Falls To Pieces (2002)
Drop B Tuning BF#BEG#C#

-------------
Key:
-------------
.  Palm Mute
h  Hammer-On
p  Pull-Off
/  Slide Up
\  Slide Down
AH Artifical Harmonic
-------------

Left Guitar Top
Right Guitar Bottom


 Intro (0:01)
||---------------||
||---------------||
||---------------||
||---------------||
||-8------5------||
||-8------5------||



 Riff A (0:02)
||------------------------------------------------------------------|
||*----------------------------------------------------------------*|
||------------------------------------------------------------------|
||------------------5-----------------------------------------------|
||*-----8---7h8---------7h8-----8p7-----5---5h7---------5---5-3----*|
||--0-0---0-----0-0---0-----0-0-----8-8---8-----5-5-5-5---5---------|
|   . .   .     . .   .     . .     . .   .     . . . .   .         |
|                                                                   |
||------------------------------------------------------------------|
||*----------------------------------------------------------------*|
||------------------------------------------------------------------|
||------------------5-----------------------------------------------|
||*-----8---7h8---------7h8-----8p7-----5---5h7---------5---5-3----*|
||--0-0---0-----0-0---0-----0-0-----8-8---8-----5-5-5-5---5---------|
    . .   .     . .   .     . .     . .   .     . . . .   .


|------------------------------------------------------------------||
|*----------------------------------------------------------------*||
|------------------------------------------------------------------||
|------------------5-----------------------------------------------||
|*-----8---7h8---------7h8-----8p7-----5---5h7---------5---5-3----*||
|--0-0---0-----0-0---0-----0-0-----8-8---8-----5-5-5-5---5---------||
|  . .   .     . .   .     . .     . .   .     . . . .   .          |
|                                                                   |
|------------------------------------------------------------------||
|*----------------------------------------------------------------*||
|------------------------------------------------------------------||
|------7---5h7-----8---5h7-----7p5---------------------------------||
|*-------------------------------------5---5h7---------5---5-3----*||
|--0-0---0-----0-0---0-----0-0-----8-8---8-----5-5-5-5---5---------||
   . .   .     . .   .     . .     . .   .     . . . .   .


 Riff B (0:21)                                                4x
||--------------------------------------------------------------||
||*------------------------------------------------------------*||
||--------------------------------------------------------------||
||------7--5--7------7--5--7------7--5--7--10-8-7----7----------||
||*-----------------------------------------------10---10-8-7--*||
||--0-0----------0-0----------0-0-------------------------------||
|   . .          . .          . .                                |
|                                                                |
||--------------------------------------------------------------||
||*------------------------------------------------------------*||
||--------------------------------------------------------------||
||-----------------------------------------10-8-7----7----------||
||*-----8--7--8------8--7--8------8--7--8---------10---10-8-7--*||
||--0-0----------0-0----------0-0-------------------------------||
    . .          . .          . .


 Riff A (0:40)
||------------------------------------------------------------------|
||*----------------------------------------------------------------*|
||------------------------------------------------------------------|
||------------------5-----------------------------------------------|
||*-----8---7h8---------7h8-----8p7-----5---5h7---------5---5-3----*|
||--0-0---0-----0-0---0-----0-0-----8-8---8-----5-5-5-5---5---------|
|   . .   .     . .   .     . .     . .   .     . . . .   .         |
|                                                                   |
||------------------------------------------------------------------|
||*----------------------------------------------------------------*|
||------------------------------------------------------------------|
||------------------5-----------------------------------------------|
||*-----8---7h8---------7h8-----8p7-----5---5h7---------5---5-3----*|
||--0-0---0-----0-0---0-----0-0-----8-8---8-----5-5-5-5---5---------|
    . .   .     . .   .     . .     . .   .     . . . .   .


|------------------------------------------------------------------||
|*----------------------------------------------------------------*||
|------------------------------------------------------------------||
|------------------5-----------------------------------------------||
|*-----8---7h8---------7h8-----8p7-----5---5h7---------5---5-3----*||
|--0-0---0-----0-0---0-----0-0-----8-8---8-----5-5-5-5---5---------||
|  . .   .     . .   .     . .     . .   .     . . . .   .          |
|                                                                   |
|------------------------------------------------------------------||
|*----------------------------------------------------------------*||
|------------------------------------------------------------------||
|------7---5h7-----8---5h7-----7p5---------------------------------||
|*-------------------------------------5---5h7---------5---5-3----*||
|--0-0---0-----0-0---0-----0-0-----8-8---8-----5-5-5-5---5---------||
   . .   .     . .   .     . .     . .   .     . . . .   .


 Riff B (0:59)                                                4x
||--------------------------------------------------------------||
||*------------------------------------------------------------*||
||--------------------------------------------------------------||
||------7--5--7------7--5--7------7--5--7--10-8-7----7----------||
||*-----------------------------------------------10---10-8-7--*||
||--0-0----------0-0----------0-0-------------------------------||
|   . .          . .          . .                                |
|                                                                |
||--------------------------------------------------------------||
||*------------------------------------------------------------*||
||--------------------------------------------------------------||
||-----------------------------------------10-8-7----7----------||
||*-----8--7--8------8--7--8------8--7--8---------10---10-8-7--*||
||--0-0----------0-0----------0-0-------------------------------||
    . .          . .          . .


 Bridge A (1:18)                                           2x
||-----------------------------------------------------------||
||*---------------------------------------------------------*||
||-----------------------REST--------------------------------||
||-----------------------------------------------------------||
||*---------------------------------------------------------*||
||-----------------------------------------------------------||
|                                                             |
|                                                             |
||-----------------------------------------------------------||
||*---------------------------------------------------------*||
||-----------------------------------------------------------||
||-----------------------------------------------------------||
||*-10-8-7-10-8-7-10-8-7-10-8-7-11-8-7-11-8-7-11-8-7-11-8-7-*||
||-----------------------------------------------------------||



 Breakdown (1:22)                8x
||---------------------------------||
||*-------------------------------*||
||---------------------------------||
||---------------------------------||
||*-0-0---0-0---0-0-------000-000-*||
||--0-0---0-0---0-0-------000-000--||
|   . .   . .   . .       ... ...   |
|                                   |
||---------------------------------||
||*-------------------------------*||
||---------------------------------||
||---------------------------------||
||*-0-0---0-0---0-0-------000-000-*||
||--0-0---0-0---0-0-------000-000--||
    . .   . .   . .       ... ...


 Riff C (1:45)
||-----------------------------------------------------------------------------------|
||*----------------------------------------------------------------------------------|
||-----------------------------------------------------------------------------------|
||----------------------------------101010101010101010101010101010108888888877777777-|
||*-77777777777777778888888888888888-------------------------------------------------|
||-----------------------------------------------------------------------------------|
|                                                                                    |
|                                                                                    |
||-----------------------------------------------------------------------------------|
||*----------------------------------------------------------------------------------|
||-----------------------------------------------------------------------------------|
||----------------------------------101010101010101010101010101010108888888877777777-|
||*-77777777777777778888888888888888-------------------------------------------------|
||-----------------------------------------------------------------------------------|

 ___________________________________________________________________
|1,2,3                                                            4x|
|-------------------------------------------------------------------|
|------------------------------------------------------------------*|
|-------------------------------------------------------------------|
|-5555555555555555777777777777777788888888888888887777777777777777--|
|------------------------------------------------------------------*|
|-------------------------------------------------------------------|
|                                                                   |
|                                                                   |
|-------------------------------------------------------------------|
|------------------------------------------------------------------*|
|-------------------------------------------------------------------|
|-------------------------------------------------------------------|
|-7777777777777777888888888888888855555555555555555555555555555555-*|
|-------------------------------------------------------------------|

 ____________________________________
|4                                   |
|------------------------------------||
|------------------------------------||
|------------------------------------||
|-5-------7-------7------------------||
|------------------------------10\---||
|-----0-0-----0-0----------0-0-10\---||
|     . .     . .          . .        |
|                                     |
|------------------------------------||
|------------------------------------||
|------------------------------------||
|------------------------------------||
|-7-------8-------5------------10\---||
|-----0-0-----0-0----------0-0-10\---||
      . .     . .          . .


 Bridge B (2:24)
||---------------------------------------------------------------||
||---------------------------------------------------------------||
||----------------REST---------------------------------AH-----AH-||
||-----------------------------------------------------4------3--||
||---------------------------------------------------------------||
||-------------------------------------------------3-4----3-4----||
|                                                                 |
|                                                                 |
||---------------------------------------------------------------||
||---------------------------------------------------------------||
||---------------------------------------------------------------||
||-----------------------------------------------------4------3--||
||-3-------6-------3-------6-------3-------6---------------------||
||---4-4-4---4-4-4---4-4-4---4-4-4---4-4-4---4-4-4-3-4----3-4----||
     . . .   . . .   . . .   . . .   . . .   . . .


 Riff D (2:29)                                                    4x
||------------------------------------------------------------------||
||*----------------------------------------------------------------*||
||--------------------------------------------------------AH-----AH-||
||--------------------------------------------------------4------3--||
||*-3-------6--------3-------6--------3-------6--------------------*||
||----444444--444444---444444--444444---444444--4444443-4----3-4----||
|                                                                    |
|                                                                    |
||------------------------------------------------------------------||
||*----------------------------------------------------------------*||
||------------------------------------------------------------------||
||--------------------------------------------------------4------3--||
||*-3-------6--------3-------6--------3-------6--------------------*||
||----444444--444444---444444--444444---444444--4444443-4----3-4----||



 Outro (2:47)                                                                  2x
||-------------------------------------------------------------------------------||
||*-----------------------------------------------------------------------------*||
||--------------------------------------------------------------------AH-----AH--||
||------------------------------------------------------4------3------4------3---||
||*-3-------6-------3-------6-------3-------6-----------------------------------*||
||-----4--3----4--3----4--3----4--3----4--3----4--3-3-4----3-4----3-4----3-4-----||
|                                                                                 |
|                                                                                 |
||-------------------------------------------------------------------------------||
||*-----------------------------------------------------------------------------*||
||--------------------------------------------------------------------AH-----AH--||
||------------------------------------------------------4------3------4------3---||
||*-3-------6-------3-------6-------3-------6-----------------------------------*||
||-----4--3----4--3----4--3----4--3----4--3----4--3-3-4----3-4----3-4----3-4-----||
            
Submit corrections

comments powered by Disqus
↑ Back to top | Dead To Fall Tabs for Cost Of A Good Impression. Lyrics for acoustic guitar and electric guitar. Tablatures and chords are parodies/interpretations of the original songs. You may use it for private study, scholarship, research or language learning purposes only