>
 >
Blood Of The Moon

Blood Of The Moon Guitar Tabs

Dead To Fall - Blood Of The Moon chords, tabs, tablatures, lyrics

Guitar lessons | Add/correct | Request | Top 50 tabs Artists:  A B C D E F G H I J K L M N O P Q R S T U V W X Y Z 0-9

Blood Of The Moon Guitar Tabs – Dead To Fall

CD, Sheet music, Poster

Do you like Blood Of The Moon? Share with your friends now
TabsTabs v2
. = palm mute
" = fast pick/tremelo picking
/ = slide out
* = pinch harmonic


this is only one guitar but figuring out harmony should be easy


--------|      
--------|
--------|          
-0------|           
-0------|
-0------|


------------------------------------------------------------|
------------------------------------------------------------|
------------------------------------------------------------|
------------------------------------------------------------|
--8"------7"------5"--------------8"------7"-----10"-----8"-|
------------------------------------------------------------|

(Play riff one after this and repeat the process as many times as needed.)
|-----------------|------------------|-----------------|------------------|
|-----------------|------------------|-----------------|------------------|  
|-----------------|------------------|-----------------|------------------|  
|-----------------|------------------|-----------------|------------------| 
|-----5----7----4-|-----5----7----4*-|-----5----7----4-|-----5----7----4--|
|-000---00---00---|-000---00---00----|-000---00---00---|-000---00---00----| 
  ...   ..   ..     ...   ..   ..      ...   ..   ..     ...   ..   ..
 
 play this on the last time
|---------------------------|\        |-----|
|---------------------------|  \      |-----|
|---------------------------|    \2x  |-----|then it pauses
|----8"-10"-7"-----7"-5"-8"-|    /    |-----|
|---------------------------|  /      |-----|
|000-----------000----------|/        |-000-|
 ...           ...                      ...

|-----------------------------------------------------|
|-----------------------------------------------------|repeat as many
|-----------------------------------------------------|times as needed
|-----------------------------------------------------|
|-------5-7-8-7-5-5h7p5-------7-5-7---------8--7--8---|
|-0-0-0--0-0-0-0-0-------8-8-8-8-8--10-10-10-10-10----|
  . . .  . . . . .       . . . . .   .  .  .  .  .
|-------------------------|----------------------|\
|-------------------------|----------------------|  \
|-------------------------|----------------------|    \4x
|-0"-7"-3"-5"-3"-2"-3"-2"-|------3-2-3-----5-3-5-|    /
|-------------------------|1-1-1--1-1-3-3-3-3-3--|  /
|-------------------------|----------------------|/
                           . . .  . . . . . . .
|---------------|
|---------------|
|---------------|
|---------------|
|-0---------12/-|
|-0---------12/-|

|-----------------------------------------|--------------|\
|-----------------------------------------|--------------|  \
|-----------------------------------------|--------------|    \play twice 
|-----------------------------------------|--------------|    /palm muted, 
|-------5------------7-------------8------|-10-8-7-8-7-5-|  /  then twice
|-5-7-8---8-5-7-8-10---10-8-7-8-10---10-8-|--------------|/    normal

|-------------|     |------------------|
|-------------|     |------------------|
|-------------|     |------------------|
|-------------| 4x  |------------------| 4x then it pauses again
|----5--7--4--|     |-0-0-0--000-0-0-0-|
|-000-00-00---|     |-0-0-0--000-0-0-0-|

|-----------------------------------------------------|
|-----------------------------------------------------|
|-----------------------------------------------------|
|-----------------------------------------------------| 4x
|-------5-7-8-7-5-5h7p5-------7-5-7---------8--7--8---|
|-0-0-0--0-0-0-0-0-------8-8-8-8-8--10-10-10-10-10----|
  . . .  . . . . .       . . . . .   .  .  .  .  .

|-------------------------|---------------------------|\
|-------------------------|---------------------------|  \
|-------------------------|---------------------------|    \4x
|-0"-7"-3"-5"-3"-2"-3"-2"-|---333---555---------------|    /
|-------------------------|111---333-------777----555-|  /
|-------------------------|-------------555----777----|/

|-----------------------------------------|--------------|\
|-----------------------------------------|--------------|  \
|-----------------------------------------|--------------|    \play twice 
|-----------------------------------------|--------------|    /palm muted, 
|-------5------------7-------------8------|-10-8-7-8-7-5-|  /  then twice
|-5-7-8---8-5-7-8-10---10-8-7-8-10---10-8-|--------------|/    normal

|----------------------------------------------|    |---------|
|----------------------------------------------|    |---------|
|---------5------------------------------------|    |---------|
|---5-7-8------8-7h8p7-------------------------| 4x |---------|
|-----------8----------8-4-444444-4-5----8---3-|    |-0-------|
|-0---------------------------------5-55-8---3-|    |-0-------|
                           ......     ..

|-----------------------------------------------------------|
|-----------------------------------------------------------|
|-----------------------------------------------------------|
|-----------------------------------------------------------| 2x
|-8"------7"------5"--------------8"------7"-----10"-----8"-|
|-----------------------------------------------------------|

|-----------------|------------------|-----------------|------------------|
|-----------------|------------------|-----------------|------------------|  
|-----------------|------------------|-----------------|------------------|  
|-----------------|------------------|-----------------|------------------| 
|-----5----7----4-|-----5----7----4*-|-----5----7----4-|-----5----7----4--|
|-000---00---00---|-000---00---00----|-000---00---00---|-000---00---00----| 
  ...   ..   ..     ...   ..   ..      ...   ..   ..     ...   ..   ..

|-----------------|------------------|-----------------|------------------|
|-----------------|------------------|-----------------|------------------|  
|-----------------|------------------|-----------------|------------------|  
|-----------------|------------------|-----------------|------------------| 
|-----5----7----4-|-----5----7----4*-|-----5----7----4-|-----5----7----4--|
|-000---00---00---|-000---00---00----|-000---00---00---|-000---00---00----| 
  ...   ..   ..     ...   ..   ..      ...   ..   ..     ...   ..   ..

|------------------|
|------------------|
|------------------|
|------------------| 4x
|-0-0-0--000-0-0-0-|
|-0-0-0--000-0-0-0-|





Comments


Popular Dead To Fall tabs & chords
Bastard Set Of Dreams Bass Tabs
Blood Of The Moon 1 Tabs
Cost Of A Good Impression Tabs
Doraematu Tabs
Master Exploder Tabs
Memory Tabs
Memory 1 Tabs
Preying On The Helpless Tabs
Smoke And Mirrors Intro Tabs
Tu Se Morta Tabs


Song lyrics



↑ Back to top | Tablatures and chords are parodies/interpretations of the original songs. You may use it for private study, scholarship, research or language learning purposes only
© 2014 AZChords.com Contact us | Privacy policy | DMCA | Add/correct tabs | Request tabs | Top 50 tabs