» » »

The Room Where You Sleep Tabs (ver.1)

Artists:  A B C D E F G H I J K L M N O P Q R S T U V W X Y Z # 

The Room Where You Sleep Tabs (ver.1)

Dead Mans Bones
Rating:
5/5 (1 vote)

Hard to play? Try these video lessons and learn fast.
                

Song      ~ In the room where you sleep
Artist    ~ Dead mans bones
Album     ~ Dead mans bones
           
CHORDS
G#m   - 244222
F#    - 244322
E     - 022100
G#mX  - 244252 
E7    - 022130
EX    - 022101
Am    - 577555
Dm    - 557765


INTRO/VERSE
    G#m                     F#                      E                       F#
e|-----------------------------------------------------------------------------------------------|
B|-------4-----------4-----------2-----------2-----------0-----------0-----------2-----------2---|
G|----4-----4-----4-----4-----3-----3-----3-----3-----1-----1-----1-----1-----3-----3-----3-----3|
D|-6-----------6-----------4-----------4-----------2-----------2-----------4-----------4---------|
A|-----------------------------------------------------------------------------------------------|
E|-4-----------4-----------2-----------2-----------0-----------0-----------2-----------2---------|
X NUMO                  
                I    saw    something               sitting     on   your   bed,etc...............


PRELUDE TO CHORUS (strumed)

          G#m    F#    E    
Where you sleep
F#        G#m    G#mX  G#m  F# E  F#
Where you sleep


ENTERING THE CHORUS SINGLE STRUMS

    E    E7   EX    E


e|--0----0----1-----0---0----------------5-5---5-5--------------5--5-----|
B|--0----3----0-----0------3--0----------5-5---5-5--------------6--6-----|
G|--1----1----1-----1--------------------5-5---5-5--------------7--7-----|
D|--2----2----2-----2--------------------7-7---7-7--------------7--7-----|
A|--2----2----2-----2-----------------7-----7----------------5---5-------|
E|--0----0----0-----0-----------------5-----5----------------5---5-------|

                        You better    run x 2     You better hide

VERSE

G#m   F#
I saw something
E              F#
sitting on you bed.
I saw something
touching your head.
In the room
where you sleep.
In the room
where you sleep.
Where you......sleep.

CHORUS
           Am
You better run.
(You got me runnin'; you got me runnin' hard.)
You better run.
(You got me runnin'; you got me runnin' hard.)
           Dm
You better hide!
(You got me runnin'; you got me runnin' hard.)
You better hide!
(You got me runnin'. I'm runnin' out of time.)

E E7 EX E             Am
Oh.........You better run.

Am //////////

VERSE
G#m   F#
I saw something
E               F#
sitting on your bed.
I saw something
touching your head.
In the room
where you sleep.
In the room
where you sleep.
Where you......sleep.

cHORUS 
          Am
You better run.
(You got me runnin'; you got me runnin' hard.)
You better run.
(You got me runnin'; you got me runnin' hard.)
           Dm
You better hide!
(You got me runnin'; you got me runnin' hard.)
You better hide!
(You got me runnin'. I'm runnin' out of time.)


E E7 EX E             Am
Oh..........You better run.

VERSE
G#m                      F#
There's something in the shadows
       E              F#
in the corner of your room.
A dark heart is beating
and waiting for you.
There is no open window, but the floors still creep.
In the room where you sleep.
In the room where you sleep......
Where you....sleep.

CHORUS
           Am  
You better run.
(You got me runnin'; you got me runnin' hard.)
You better run.
(You got me runnin'; you got me runnin' hard.)

You better hide!
(You got me runnin'; you got me runnin' hard.)
You better hide!
(You got me runnin'. I'm runnin' out of time.)


E E7 EX E                 Am
Oh......You better........run.
                        

                                          Fin.
            
Hard to play? Try these video lessons and learn fast. | Correct




comments powered by Disqus
↑ Back to top | Tablatures and chords are parodies/interpretations of the original songs. You may use it for private study, scholarship, research or language learning purposes only