» » »

Dead Kennedys, Police Truck Tabs (ver.2)

Artists:  A B C D E F G H I J K L M N O P Q R S T U V W X Y Z # 

Police Truck Tabs (ver.2)

Dead Kennedys Tabs
Rating:
0/5 (0 votes)
Police Truck lessons Tabs too difficult? Try these video lessons and learn fast
                Dead Kennedy’s

Standard tuning
~ let ring
\ slide
* harmonics


Intro
E----------------0------------------*12~~~------------------------
B-3~~~-2~~~-1~~~-0------------------*12~~~------------------------
G-2~~~-1~~~-0~~~-1------------------------------------------------
D----------------2------------------------------------------------
A----------------2------------------------------------------------
E----------------0------------------------------------------------

Riff 1
E----------------------------------------------------------------
B---15-14-13-12~~~-13-12-11-10~~~--------------------------------
G---------------------------------12-11-10-9~~~------------------
D----------------------------------------------------------------
A----------------------------------------------------------------
E----------------------------------------------------------------

Riff 2a
E----------------------------------------------------------------
B----------------------------------------------------------------
G----------------------------------------------------------------
D----------------------------------------------------------------
A----------------------------------------------------------------
E-00-33----------------------------------------------------------


Riff 2b
E----------------------------------------------------------------
B----------------------------------------------------------------
G----------------------------------------------------------------
D----------------------------------------------------------------
A----------------------------------------------------------------
E-3-00--------------------------------------------------------------



Riff 3
E----------------------------------------------------------------
B----------------------------------------------------------------
G----------------------------------------------------------------
D----------------------------------------------------------------
A--------------2--------------------------------------------------
E—7-7777-66-55-0--------------------------------------------------

Riff 4a
E--66-77---------------------------------------------------------
B----------------------------------------------------------------
G----------------------------------------------------------------
D----------------------------------------------------------------
A----------------------------------------------------------------
E----------------------------------------------------------------

Riff 4b
E--77-66---------------------------------------------------------
B----------------------------------------------------------------
G----------------------------------------------------------------
D----------------------------------------------------------------
A----------------------------------------------------------------
E----------------------------------------------------------------

Riff 5
E----------------------------------------------------------------
B-3-21--321-0----------------------------------------------------
G----------------------------------------------------------------
D----------------------------------------------------------------
A----------------------------------------------------------------
E----------------------------------------------------------------


Pre riff (6)
E----------------------------------------------------------------
B----------------------------------------------------------------
G----------------------------------------------------------------
D----------------------------------------------------------------
A----------------------------------------------------------------
E-56---------------------------------------------------------------


Riff 6
E----------------------------------------------------------------
B----------------------------------------------------------------
G----------------------------------------------------------------
D----------------------------------------------------------------
A----------------------------------------------------------------
E-7-777777-666-5553----------------------------------------------

Pre solo
E----------------------------------------------------------------
B----------------------------------------------------------------
G----------------------------------------------------------------
D----------------------------------------------------------------
A-77-66-55-66----------------------------------------------------
E----------------------------------------------------------------

Solo (fast)
(E)	-7-6-7-6-7-6-7-6-10-9-10-9-10-9-10-9-11-12-11-12-11-12-11
-12-5-4-5-4-5-4-5-4-7-6-7-6-7-6-7-6-10-9-1-0-9-1-0-9-1-0-9-11-12-
11-12-11-12-11-12-11-12-11-12-11-12-11-12-11-12-11-12-11-12-11-12
-11-12-11-12-11-12-11-12


Intro
Riff 2a x10
Riff 4a
Riff 2a x6
Riff 4a       
Riff 3
Riff 5
Riff 3
Riff 2 x2
Riff 4b   
Riff 2a x2
Riff 4b
Riff 2a x6
Pre riff
Riff 3
SOMETHING
Riff 2a x6
pre  riff
Riff 3
Riff 2b x2
Riff 6 x3
Pre Solo x4
Solo
Riff 2a x2
Riff 4b
Riff 2a x2
Riff 4b
Riff 2a x6
Riff 4a
Riff 2a x4
Riff 3
Riff 5
Riff 3
Riff 2b x2
Riff 6 x4 (minor alteration)
Riff 5
Riff 3
Riff 1 (not last bit)
Riff 3
SOMETHING 
Outro on riff 3 (some alteration)
            
Submit corrections

comments powered by Disqus
↑ Back to top | Dead Kennedys Tabs for Police Truck. Lyrics for acoustic guitar and electric guitar. Tablatures and chords are parodies/interpretations of the original songs. You may use it for private study, scholarship, research or language learning purposes only