» » »

Dead Fish, Wrong Tabs (ver.1)

Artists:  A B C D E F G H I J K L M N O P Q R S T U V W X Y Z # 

Wrong Tabs (ver.1)

Dead Fish Tabs
 Rating:
4/5 (4 votes)
Wrong lessons Tabs too difficult? Try these video lessons and learn fast
1
                I didn't tab it. This is from my personal file, but any corrections are welcome!


Na minha opinião essa é uma das melhores do Dead FISH.

Fase 1

E | ------------------------------------------------------------------|
B | ------------------------------------------------------------------|
G | 6-6-6------------------------9-9-9--------------------------------|
D | 6-6-6----7-7-7-----7-7-7-----9-9-9--------------------------------|
A | 4-4-4----7-7-7-----7-7-7-----7-7-7--------------------------------|
E | ---------5-5-5-----4-4-4------------------------------------------|

Introdução da musica! A primeira parte da introdução é tocada com apenas 
Uma batida 2x, depois fica na batida normal

Fase 2

E | ------------------------------------------------------------------|
B | ------------------------------------------------------------------|
G | 6-6-6------------9-9-9-----------------4-4-4-----6-6-6------------|
D | 6-6-6---6-6-6----9-9-9----11-11-11-----4-4-4-----6-6-6------------|
A | 4-4-4---6-6-6----7-7-7----11-11-11-----2-2-2-----4-4-4------------|
E | --------4-4-4--------------9--9--9--------------------------------|

Essa parte é tocada 2 x e depois volta a 1 parte

A musica basicamente são essas duas fases, é só repetir, e saber o tempo
            
Submit corrections

comments powered by Disqus
↑ Back to top | Dead Fish Tabs for Wrong. Lyrics for acoustic guitar and electric guitar. 1 Tablatures and chords are parodies/interpretations of the original songs. You may use it for private study, scholarship, research or language learning purposes only