>
 >
Proprietarios Do Terceiro Mundo

Proprietarios Do Terceiro Mundo Guitar Tabs

Dead Fish - Proprietarios Do Terceiro Mundo chords, tabs, tablatures, lyrics

Guitar lessons | Add/correct | Request | Top 50 tabs Artists:  A B C D E F G H I J K L M N O P Q R S T U V W X Y Z 0-9

Proprietarios Do Terceiro Mundo Guitar Tabs – Dead Fish

CD, Sheet music, Poster

Do you like Proprietarios Do Terceiro Mundo? Share with your friends now
Tabs
#intro #BE-------------------------------------|
B-------------------------------------|G---55-555-555-555-555-555-555-5555---|
D-------------------------------------|A---33-333-333-333-333-333-333-3333---|
E-------------------------------------|
#intro #A /=slide-up *=play 30x palm-muted
E-------------------------------------|---X2----|
B-------------------------------------|----*----|
G-----------------/888-888-888-8888---|---5--5--|
D-------------------------------------|---5--5--|
A-----------------/666-666-666-6666---|---3--3--|
E-------------------------------------|---------|#intro(cont.) #B X2
E----------------------------------------------|
B----------------------------------------------|
G---55-555-5/77-777-7/88-888-8/1010-10101010---|
D----------------------------------------------|
A---33-333-3/55-555-5/66-666-6/-8-8--8-8-8-8---|
E----------------------------------------------|#verse #A&B X2
E---------------------------|B-------------------88-88---|
G---mm-5------------88-88---|D---55-5-mm-5-mm-6--88-88---|
A---33-3-55-5-66-6----------|E--------33-3-44-4----------|#verse(cont.) #A
E-----------------------------------------------------|
B-----------------------------------------------------|
G---5-55-----------------12-1212-10-1010--8-88-7-77---|
D---5-55-5-55-6-66-8-88-------------------------------|
A---3-33-5-55-6-66-8-88--10-1010--8--8-8--6-66-5-55---|
E--------3-33-4-44-6-66-------------------------------|#verse(cont.) #B X2
E-------------------------|B-------------------------|
G---5-55------------------|D---5-55-5-55-6-66-8-88---|
A---3-33-5-55-6-66-8-88---|E--------3-33-4-44-6-66---|#chorus #A X4
E------------------------------------------|
B------------------------------------------|
G---55-555-555-555-555-555-555-8810-1010---|
D------------------------------------------|
A---33-333-333-333-333-333-333-66-8--8-8---|
E------------------------------------------|#chorus #B *=play 8-9x \=slide-down
E----------------------------------------------------------------|--- X4----|
B-----------------------------------------------------------*-*--|----*-*---|
G---55-555-555-555-------------8810-1010---55-555-555-555-10\8---|--10\8----|
D---55-555-555-555-666-666-666-------------55-555-555-555--------|----------|
A---33-333-333-333-333-333-333-66-8--8-8---33-333-333-333--8\6---|---8\6----|
E------------------444-444-444-----------------------------------|----------|
#bridge #A X2E-----------------------|B----*----*----*----*---|
G---5----7----8---10----|D---5----7----8---10----|A---3----5----6----8----|
E---3----5----6----8----|#bridge #B m=palm-muted
E--------------------------------------------------------------------|\
B---mmmm----mm----mmmm----mmmm----mm----mmmm----mmmm----mm----mmmm---| \
G---1010-10-10-10-1010-10-1010-10-10-10-1010-10-1010-10-10-10-1010---|  \
D---1010-10-10-10-1010-10-1010-10-10-10-1010-10-1010-10-10-10-1010---|   \
A--------------------------------------------------------------------|    \
E--------------------------------------------------------------------|     \
                                                                            \   play
#bridge(cont.) h=hammer-on                                                  /    2X
E-----------------------------------------|                                /
B-----------------------------------------|                               /
G---10h12-10-mm-mm-10h12-10-mm-10h12-10---|                              /
D------------12-10----------12------------|                             /
A-----------------------------------------|                            /
E-----------------------------------------|                           / 
play verse#A&B, chorus#A&B#bridge2 #A *=play 15x palm-muted #=play 8x palm-muted
E--------------------------------------------------------------------%%---|
B-------------------------------------------------------------------#%%---|
G---5------------------------------*------------------------------/8-%%---|
D---------------------------------6----------------------------------%%---|
A---3-----------------------------6-------------------------------/6-%%---|
E---------------------------------4----------------------------------%%---|
#bridge2 #B *=play 15x palm-muted #=play 8x palm-muted
E--------------------------------------------------------------------%%---|
B--------------------------------------------------------------------%%---|
G----------5-------------5---------*--------5-------------5---------#%%---|
D---mm-3-m---mm-3-mm-3-m---m-3-m--6--mm-3-m---mm-3-mm-3-m---m-3-m--6-%%---|
A---33---3---33---33---3---3---3--6--33---3---33---33---3---3---3--6-%%---|
E---------------------------------4--------------------------------4-%%---|
#chorus #A X4E------------------------------------------|
B------------------------------------------|
G---55-555-555-555-555-555-555-8810-1010---|
D------------------------------------------|
A---33-333-333-333-333-333-333-66-8--8-8---|
E------------------------------------------|#chorus #B *=play 8-9x \=slide-down
E----------------------------------------------------------------|
B-----------------------------------------------------------*-*--|
G---55-555-555-555-------------8810-1010---55-555-555-555-10\8---|
D---55-555-555-555-666-666-666-------------55-555-555-555--------|
A---33-333-333-333-333-333-333-66-8--8-8---33-333-333-333--8\6---|
E------------------444-444-444-----------------------------------|
#bridge3 #A *=até o fim da musicaE--------|B----*---|G---8----|D--------|
A---6----|E--------|#bridge3 #B *=play 5x m=palm-muted
E--------------------------------------------------------------------------|
B-------------------------------------------*-8----------------------------|
G-------m--m-8--m-m-8--m-m-8--m-8--m-8--m-10----10-8--m-m-m--m-8--m-8--m---|
D--m--m-8-10---1010---1010---10---10---10------------1010-8-10---10---10---|
A--8-10--------------------------------------------------------------------|
E--------------------------------------------------------------------------|
#bridge3 #B (cont.) *=play 5x
E--------------------------------------------------------------------------|
B-------------------------------------------*------------------------------|
G-------m--m-8--m-m-8--m-m-8--m-8--m-8--m-10--8--m-8--m-m-m--m-8--m-8--m---|
D--m--m-8-10---1010---1010---10---10---10-------10---1010-8-10---10---10---|
A--8-10--------------------------------------------------------------------|
E--------------------------------------------------------------------------|
#bridge4 #B 
E-----------------------------------|--------------------------------------|
B--9---9---9---9--8---8---8---8-----|--9---9---9---9--8---8---11-9-8-9-8---|
G----8---8---8------8---8---8---8---|----8---8---8------8---8--------------|
D-----------------------------------|--------------------------------------|
A----<----------3X----------->------|--------------------------------------|
E-----------------------------------|--------------------------------------|





Comments


Popular Dead Fish tabs & chords
A Recompensa Bass Tabs
A Urgncia Bass Tabs
Voc Chords
A Cura Tabs
Damn' Lie Tabs
Individualismo De Massa Tabs
No Place Tabs
Sonho MéDio Tabs
Wrong Tabs
Voc Ukulele


Song lyrics



↑ Back to top | Tablatures and chords are parodies/interpretations of the original songs. You may use it for private study, scholarship, research or language learning purposes only
© 2014 AZChords.com Contact us | Privacy policy | DMCA | Add/correct tabs | Request tabs | Top 50 tabs