» » »

Dead Fish, No Place Tabs (ver.1)

Artists:  A B C D E F G H I J K L M N O P Q R S T U V W X Y Z # 

No Place Tabs (ver.1)

Dead Fish Tabs
 Rating:
4/5 (4 votes)
No Place lessons Tabs too difficult? Try these video lessons and learn fast
1
                I didn´t tab it. This is from my personal file, but any corrections are welcome!


A musica é composta de 4 fases

Fase1

E | --------------------------------------------------------------------------|
B | --------------------------------------------------------------------------|
G | -------------------5-5-5---7-7-7--------------------------5-5-5----7-7-7--|
D | 5-5-5----7-7-7-----5-5-5---7-7-7----- 5-5-5----7-7-7------5-5-5----7-7-7--|
A | 5-5-5----7-7-7-----3-3-3---5-5-5----- 5-5-5----7-7-7------3-3-3----5-5-5--|
E | 3-3-3----5-5-5------------------------3-3-3----5-5-5----------------------|

Essa parte é a principal: introdução da musica, tocada 2 x

Fase 2

E | --------------------------------------------------------------------------|
B | --------------------------------------------------------------------------|
G | -------------------5-5-5---7-7-7--------------------------5-5-5----7-7-7--|
D | 5-5-5----7-7-7-----5-5-5---7-7-7----- 5-5-5----7-7-7------5-5-5----7-7-7--|
A | 5-5-5----7-7-7-----3-3-3---5-5-5----- 5-5-5----7-7-7------3-3-3----5-5-5--|
E | 3-3-3----5-5-5------------------------3-3-3----5-5-5----------------------|

Na segunda execução da Fase 2 fase logo depois do refrão "tudo que foi dito.."é feito com as cordas abafadas na seqüência , retoma a fase 1 

Fase 3

E | -------------------------------------------------------------------------|
B | -------------------------------------------------------------------------|
G | ---------5--5-5-------------7-7--7--------------5-5-5-------------7-7-7--|
D | 5-5-5----5-5-5-----5-5-5----7-7--7-----5-5-5----5-5-5---5-5-5-----7-7-7--|
A | 5-5-5----3-3-3-----5-5-5----5-5--5-----5-5-5----3-3-3---5-5-5-----5-5-5--|
E | 3-3-3----- --------3-3-3---------------3-3-3------------3-3-3------------|

Esse é o refrão .

Depois é só repetir a seqüência
            
Submit corrections

comments powered by Disqus
↑ Back to top | Dead Fish Tabs for No Place. Lyrics for acoustic guitar and electric guitar. 1 Tablatures and chords are parodies/interpretations of the original songs. You may use it for private study, scholarship, research or language learning purposes only