» » »

Individualismo De Massa Tabs (ver.1)

Artists:  A B C D E F G H I J K L M N O P Q R S T U V W X Y Z # 

Individualismo De Massa Tabs (ver.1)

Dead Fish
Rating:
0/5 (0 votes)

Tabs too difficult? Try these video lessons and learn fast.
                I didn't tab it. This is from my personal file, but any corrections are welcome!

Dead Fish
Individualismo de massa

Nossa! essa musica é muito foda .......

1º parte
introdução

e|------------------------------------------------------------------------|
b|-----------------------8-8-8---------------------------8-8-8------------|
g|-----------------------8-8-8---------------------------8-8-8------------|
d|-------------5-5-5-----3-3-3------6-6-6--------5-5-5---3-3-3----6-6-6---|
a|-------------5-5-5-----3-3-3-------------------5-5-5---3-3-3------------|
E|-------------3-3-3-----1-1-1-------------------3-3-3---1-1-1------------|

2º parte
e|---------------------------------------------------------------------|
b|---------------------------------------------------------------------|
g|----5-5-5-----------8-8-8--------------5-5-5------------8-8-8--------|
d|----5-5-5---8-8-8---8-8-8---3-3-3------5-5-5---8-8-8----8-8-8--------|
a|----3-3-3---8-8-8---6-6-6---3-3-3------3-3-3---8-8-8----6-6-6--------|
E|------------6-6-6-----------1-1-1--------------6-6-6-----------------|

Na 2º parte repete 3x a mesma base

3º parte 

e|---------------------------------------------------------------------------|
b|---------------------------------------------------------------------------|
g|-----------------------7/-8-8----------------------5/-8-8------------7-----|
d|-------------5-5-5-----7/-8-8---3-3-3------5-5-5---5/-8-8---8-8-8----7/7---|
a|-------------5-5-5-----5/-6-6---3-3-3------5-5-5---5/-6-6---8-8-8----5/7---|
E|-------------3-3-3--------------1-1-1------3-3-3------------6-6-6----5-----|

Na 3º parte, repete essa mesma base 3 x

4º Parte

e|----------------------------------------------------------------------|
b|--------------------------8-8-8--7-7----------------------8-8-8-7-7---|
g|--------------------------8-8-8--7-7----------------------8-8-8-7-7---|
d|-------5-5-5-----3-3-3----6-6-6--5-5-----5-5-5---3-3-3----6-6-6--5-5--|
a|-------5-5-5-----3-3-3-------------------5-5-5---3-3-3----------------|
E|-------3-3-3-----1-1-1-------------------3-3-3---1-1-1----------------|

No final do Refrão toca-se essa base
Depois é só repeti nessa ordem a musica
            
Tabs too difficult? Try these video lessons and learn fast.




comments powered by Disqus
↑ Back to top | Tablatures and chords are parodies/interpretations of the original songs. You may use it for private study, scholarship, research or language learning purposes only