» » »

Dead Fish, Damn' Lie Tabs (ver.1)

Artists:  A B C D E F G H I J K L M N O P Q R S T U V W X Y Z # 

Damn' Lie Tabs (ver.1)

Dead Fish Tabs
 Rating:
4/5 (4 votes)
Damn' Lie lessons Tabs too difficult? Try these video lessons and learn fast
                I didn't tab it. This is from my personal file, but any corrections are welcome!

***' lie

1 parte dessa musica é feita assim

E | --------------------------------------------------------|
B | --------------------------------------------------------|
G | -----------3-3-3---6-6-6-------------5-5-5--------------|
D | -----3-3---3-3-3----6-6-6----6-6-6---5-5-5--------------|
A | -----3-3---1-1-1----4-4-4----6-6-6---3-3-3--------------|
E | -----1-1---------------------4-4-4----------------------|

CONTINUAÇÃO DA 1 º PARTE

E | --------------------------------------------------------|
B | --------------------------------------------------------|
G | -----------3-3-3----6-6-6-------------------------------|
D | -----3-3---3-3-3----6-6-6----6-6-6------5-5-5-----------|
A | -----3-3---1-1-1----4-4-4----6-6-6------5-5-5-----------|
E | -----1-1---------------------4-4-4------3-3-3-----------|

2a PARTE- refrão da musica

E | --------------------------------------------------------|
B | --------------------------------------------------------|
G | -------------6-6-6-------------8-5----------------------|
D | -----3-3-----6-6-6---6-6-6-----8-5-5--------------------|
A | -----3-3--- -4-4-4---6-6-6-----6-3-5--------------------|
E | -----1-1-------------4-4-4---------3--------------------|

E | --------------------------------------------------------|
B | --------------------------------------------------------|
G | -------------6-6-6--------------------------------------|
D | -----3-3-----6-6-6---6-6-6----5-5-5---------------------|
A | -----3-3--- -4-4-4---6-6-6----5-5-5---------------------|
E | -----1-1-------------4-4-4----3-3-3---------------------|
            
Submit corrections

comments powered by Disqus
↑ Back to top | Dead Fish Tabs for Damn' Lie. Lyrics for acoustic guitar and electric guitar. Tablatures and chords are parodies/interpretations of the original songs. You may use it for private study, scholarship, research or language learning purposes only