» » »

A Urgncia Bass tabs (ver.1)

Artists:  A B C D E F G H I J K L M N O P Q R S T U V W X Y Z # 

A Urgncia Bass tabs (ver.1)

Dead Fish
Rating:
0/5 (0 votes)

Tabs too difficult? Try these video lessons and learn fast.
                

A urgência


INTRO - 2x
G|----------------------------------|
D|----------------------------------|
A|----------------2-2---------------|
E|---2-2-----2-2---------3-3---2-2--|
B|-3-------3-----------3-----3------|

INTRO 2 - 2x
G|----------------------------------|
D|----------------------------------|
A|----------------------------------|
E|-2-2-2-2---------5-5-5-5-0-0-0-0--|
B|---------3-3-3-3------------------|

VERSE
G|---------------------------------------------------------------------|
D|---------------------------------------------------------------------|
A|---------------------------------------------------------------------|
E|-2-2-2-2-2-2-2-2-2-5-5-5-5-5---------2-2-2-2-2-2-2-2-5-5-5-5---------|
B|-----------------------------3-3-3-3-------------------------5-5-5-5-|

CHORUS
G|-------------------------------------------------|
D|-------------------------------------------------|
A|-------------------------4-4-4-4-4-4-------------|
E|-------------------------------------2-2-2-2-2-2-|
B|-3-3-3-3-3-3-5-5-5-5-5-5-------------------------|

AFTER CHORUS
G|---------------------------------|
D|---------------------------------|
A|---------------------------------|
E|---------------------------------|
B|-3-3-3-3-3-3-3-3-5-5-5-5-5-x-x-x-|

ENDING
G|------------------------------------------|---|
D|------------------------------------------|---|
A|------------------------------------------|---|
E|-2-2-2-2-2--2-2-2-2-2-5-5-5-5-5-----------|---|
B|--------------------------------3-3-3-3-3-|-3-|
            
Tabs too difficult? Try these video lessons and learn fast.




comments powered by Disqus
↑ Back to top | Tablatures and chords are parodies/interpretations of the original songs. You may use it for private study, scholarship, research or language learning purposes only