>
 >
What's Left For Me?

What's Left For Me? Guitar Tabs

Days Of The New - What's Left For Me? chords, tabs, tablatures, lyrics

Guitar lessons | Add/correct | Request | Top 50 tabs Artists:  A B C D E F G H I J K L M N O P Q R S T U V W X Y Z 0-9

What's Left For Me? Guitar Tabs – Days Of The New

CD, Sheet music, Poster

Do you like What's Left For Me?? Share with your friends now
TabsTabs v2
DAYS OF THE NEW
Transcribe By:Travis Wells

Notice the other tab on here is way off so i thought to do it myself.So here you go.Enjoy


  All guitars tuned to Db Minor (Db,Fb,Db,Fb,Ab,Fb)

  Intro:

|---------0-----------0-----------0-----------0---|
|-----5-----5-----5-----5---5-------5-----5-----5\|
|---0---0-------0---0-----------0-------0---0-----|
|-7-----------0-----------7---7-------0-----------|
|-------------------------------------------------|
|-------------------------------------------------|

|---------0-----------0-----------0---------------|
|-----1-----1-----1-----1---1-------1-----1-------|
|---4---4-------4---4-----------4-------4---4-----|
|-0-----------3-----------0---0-------3-------5/7-|
|-------------------------------------------------|
|-------------------------------------------------|

|---------0-----------0-----------0-----------0---|
|-----5-----5-----5-----5---5-------5-----5-----5\|
|---0---0-------0---0-----------0-------0---0-----|
|-7-----------0-----------7---7-------0-----------|
|-------------------------------------------------|
|-------------------------------------------------|

|---------0-----------0-----------0---------------|
|-----1-----1-----1-----1---1-------1-------------|
|---4---4-------4---4-----------4-----2-0---------|
|-0-----------3-----------0---0-----------2-0-----|
|---------------------------------------------3-0-|
|-------------------------------------------------|

|----------------------------------------------------------|
|---------0-----------0-----------0---------5--------------|
|-----0-----0---0---0---0---0---0---------5---2h4----------|
|---2---2-----2---2-------2---2-----0-4h5---------2h3p2p0--|
|-------------------------(0)------------------------------|
|-3--------------------------------------------------------|

|---------0-----------0-----------0-----------0---|
|-----5-----0-----5-----5-----5-----5-----5-----5-|
|---0---0-------0---0-------0---0-------0---0-----|
|(0)----------7-----------7-----------7-----------|
|-------------------------------------------------|
|-------------------------------------------------|

|---------0-----------0-----------0---------------|
|-----5-----0-----5-----5-----5-----5-------------|
|---0---0-------0---0-------0---0---------------0-|
|-7-----------7-----------7-------------0---0-----|
|-------------------------------------------------|
|-------------------------------------8---7---6---|

   Home (play this part 4 times):
 ---------0-----------0-----------0---------------|
|-----5-----0-----5-----0-----5-----0-------------|
|---0---0-------0---0-------0---0---------------0-|
|---------------------------------------0---0-----|
|-------------------------------------------------|
|-0-----------0-----------0-----------8---7---6---|

  Chorus Chords:Bbmaj9,Dm,Dm9,Bbmaj9,Dm,A(9)

|---------0-----------0-----------0-----------0---|
|-----5-----5-----5-----5---5-------5-----5-----5-|
|---0---0-------0---0-----------0-------0---0-----|
|-7-----------0-----------7---7-------0-----------|
|-------------------------------------------------|
|-------------------------------------------------|

|---------0-----------0-----------0-----------0---|
|-----5-----5-----5-----5---5-------5-----5-----5-|
|---0---0-------0---0-----------0-------0---0-----|
|-8-----------0-----------8---8-------0-----------|
|-------------------------------------------------|
|-------------------------------------------------|


|---------------------------------------------------|
|-----5---5-------5---5-----5-----5-------5---5-----|
|---0---0---0---0---0---0-------0---0---0---0---0---|
|-7-----------0-----------7---7-------0-------------|
|---------------------------------------------------|
|---------------------------------------------------| |_
   know in your mind...				       	|_
							  |_
		  					   _|-(play twice)
							 _|
|-------------------------------------------------|  ---|
|-----5---5-------5---5-----5-----5-------5---5---|-----|
|---0---0---0---0---0---0-------0---0---0---0---0-------|
|-8-----------0-----------8---8-------0-----------------|
|-------------------------------------------------------|
|-------------------------------------------------------|
   got to remember...


|---------------------------------------------------|
|---------0-----------0-----------0-----------------|
|---0---0---0---0---0---0---0---0---0-2-0-----------|
|-2---2-------2---2-------2---2-----------2-0-------|
|---------------------------------------------7-4---|
|---------------------------------------------------|

|---------0-----------0-----------0---------------|
|-----5-----0-----5-----0-----5-----0-------------|
|---0---0-------0---0-------0---0---------------0-|
|-------------7-----------7-------------0---0-----|
|-------------------------------------------------|
|-0-----------------------------------8---7---6---|

   Home 2:

|---------0-----------0-----------0-----------------|
|-----5-----0-----5-----0-----5-----0---------------|
|---0---0-------0---0-------0---0---------------0---|
|---------------------------------------0---0-------|
|---------------------------------------------------|
|-0-----------0-----------0-----------8---7---6-----| |_
							|_
							  |_
							   _|-(Play 4 times)
							 _|
|---------0-----------0-----------0---------------|  ---|
|-----5-----0-----5-----0-----5-----0-------------|-----|
|---0---0-------0---0-------0---0---------------0-------|
|---------------------------------------0---0-----------|
|-------------------------------------------------------|
|-0-----------3-----------0-----------8---7---6---------|

  Chorus:


|---------------------------------------------------|
|-----5---5-------5---5-----5-----5-------5---5-----|
|---0---0---0---0---0---0-------0---0---0---0---0---|
|-7-----------0-----------7---7-------0-------------|
|---------------------------------------------------|
|---------------------------------------------------| |_
   Know in your mind...				       	|_
							  |_
		  					   _|-(play 4 times)
							 _|
|-------------------------------------------------|  ---|
|-----5---5-------5---5-----5-----5-------5---5---|-----|
|---0---0---0---0---0---0-------0---0---0---0---0-------|
|-8-----------0-----------8---8-------0-----------------|
|-------------------------------------------------------|
|-------------------------------------------------------|
   got to remember...


|-------------------------------------------------|
|-----0---0-------0---0-------0---0---------------|
|---0---0---0---0---0---0---0---0---0-2-0---------|
|-2-----------2-----------2---------------2-0-----|
|---------------------------------------------3-0-|
|-------------------------------------------------|

|---------0-----------0-----------0-----------------|
|-----5-----0-----5-----0-----5-----0---------------|
|---0---0-------0---0-------0---0-----2-0-----------|
|-------------7-----------7---------------2-0-------|
|---------------------------------------------3-0---|
|-0-----------------------------------------------0-|
							yeah...

  Chorus:




|---------0-----------0-----------0-----------0---|
|-----5-----5-----5-----5---5-------5-----5-----5-|
|---0---0-------0---0-----------0-------0---0-----|
|-7-----------0-----------7---7-------0-----------|
|-------------------------------------------------|
|-------------------------------------------------|

|---------0-----------0-----------0---------------|
|-----1-----1-----1-----1---1-------1-------------|
|---4---4-------4---4-----------4-----2-0---------|
|-0-----------3-----------0---0-----------2-0-----|
|---------------------------------------------3-0-|
|-------------------------------------------------|

|-----------------------------------------------------------|
|---------0-----------0-----------0---------5---------------|
|-----0-----0---0---0---0---0---0---------5---2h4-----------|
|---2---2-----2---2-------2---2-----0-4h5---------2h3p2p0---|
|-----------------------------------------------------------|
|-3---------------------------------------------------------|


|-------------------------------------------------|
|------5p0--5p0--5p0--0h5-------------------------|
|-------------------------------------------------|
|---0---------------------------------------------|
|-------------------------------------------------|
|-0-----------------------------------------------|





Comments


Popular Days Of The New tabs & chords
Now Bass Tabs
The Down Town Bass Tabs
Dancing With The Wind Tabs
Enemy 2 Tabs
I Think Tabs
Independant Slaves Tabs
Shelf In The Room (Solo) Tabs
The Sun Tabs
Touch, Peel And Stand 1 Tabs
Shelf In The Room Ukulele


Song lyrics



↑ Back to top | Tablatures and chords are parodies/interpretations of the original songs. You may use it for private study, scholarship, research or language learning purposes only
© 2014 AZChords.com Contact us | Privacy policy | DMCA | Add/correct tabs | Request tabs | Top 50 tabs