» » »

Weapon & The Wound Tabs (ver.1)

Artists:  A B C D E F G H I J K L M N O P Q R S T U V W X Y Z # 

Weapon & The Wound Tabs (ver.1)

Days Of The New
Rating:
0/5 (0 votes)

Hard to play? Try these video lessons and learn fast.
                Tuning: Half step down, then to drop D

The actual intro is played on keybords, 
that you can hear on guitar is this:

Played faintly in the background:

d--------
a--------
E-x-x-0-0

Guitar intro:

riff 1:
e-----------       
b-----------
g-----------
d-----0-----
a--0-3-3-0-3
E-0---------

riff 2:
e----------
b----------
g--5-7-5-5-
d-7-7---7--
a---------5
E---------0

Repeat riff\'s 1 and 2 together at the same time
for the verses

Chorus:

riff 3:       riff 4:
e-x--x--0     e----------
b-x--3--1     b----------
g-7--4--0     g----------
d-7--4--2     d-12--9--10
a-5--2--3     a-12--9--10
E-0--x--x     E-12--9--10

Strum riff\'s 3 and 4 together for the 
chorus. It all sounds good together

Interlude:

p.m...........
e-------------
b-------------
g-------------
d-------0-----
a--0-3-0-3-0-3
E-0-----------

I don\'t know the pre-chorus, 
but when I get it, I\'ll post
it as well. Enjoy DOTN Fans!
            
Hard to play? Try these video lessons and learn fast. | Correct




comments powered by Disqus
↑ Back to top | Tablatures and chords are parodies/interpretations of the original songs. You may use it for private study, scholarship, research or language learning purposes only