>
 >
Touch Of Anger

Touch Of Anger Guitar Tabs

Days Of The New - Touch Of Anger chords, tabs, tablatures, lyrics

Guitar lessons | Add/correct | Request | Top 50 tabs Artists:  A B C D E F G H I J K L M N O P Q R S T U V W X Y Z 0-9

Touch Of Anger Guitar Tabs – Days Of The New

CD, Sheet music, Poster

Do you like Touch Of Anger? Share with your friends now
Tabs
-----------------------------------------------------------------------------
                             Touch of Anger - Travis Meeks
-----------------------------------------------------------------------------

ghost notes missing and a few here and there but feel free to add them in here or correct 
getting you in the right direction.Awsome song and enjoy

Tuning: C#G#C#C#G#C#

C#|--0-------------------------------------------------|
G#|-----------------0----------0-----0----0------------|
C#|-------12-12\10--10\9-------9-----9----9------7-10--|
C#|----14-0-------12----10---10----10---10-----10------|
G#|------------------------12----10----9----7----------|
C#|-0--------------------------------------------------|

C#|--0----------0--------------------------0---------------------|
G#|-------------x-------0------------0-----0------0--------------|
C#|-------12----12\10---10\9---------9-----9------9------7-10----|
C#|----14-0--14------12-----10-----10----10-----10-----10--------|
G#|------------------------------12----10------9-----7-----------|
C#|-0------------------------------------------------------------|

C#|--------------------------------------------------------------|
G#|----------------------------------------------------------0---|
C#|------9-------7---------9----------7---------9-----8------7---|
C#|----7--7----10-10------7-7---10-10---10----7-----5-----5--5---|
G#|--8-------7--------8-8-----7-------------8-----7-----6----6---|
C#|----------------------------------------------------------0---|

C#|-------------------0---------0-----------------0---------------------------|
G#|--------------0----0-----0--------0-----0---0------------------------------|
C#|--------------10----7----7-------10---------10--------10-----7----7--------|
C#|------------7---------10-------7----------7---------7----------10----------|
G#|---------------------------------------------------------------------------|
C#|-3/7-(7)-0-------00---------0--------00-----------0-------00---------------|

 I realize this part is somewhat off, but its got the right idea. If anyone cares to fix 
for me, go ahead.

C#|--0-----0---0-----0---0---0---0------0---0---0---0--------|
G#|----------------------------------------------------------|
C#|---------------------------------------------------2------|
C#|-0--3p0---5---3p0---5---3---5------2---3---5---3----------|
G#|-5-------------------------------4------------------------|
C#|----------------------------------------------------------|

C#|--0-----0---0-----0---0---0---0------0---0---0-----|
G#|---------------------------------------------------|
C#|---------------------------------------------------|
C#|-0--3p0---5---3p0---5---3---5------2---3---5---3-- |
G#|-5-------------------------------4-----------------|
C#|---------------------------------------------------|


C#|--0-----0---0-----0---0---0---0------0---0---0---0-----0-0-0-|
G#|-------------------------------------------------------------|
C#|-------------------------------------------------------------|
C#|-0--3p0---5---3p0---5---3---5------2---3---5---3---2--0-0-0--|
G#|-5-------------------------------4---------------------------|
C#|-------------------------------------------------------------|

C#|--0-----0---0-----0---0---0---0------0---0---0---0--------|
G#|----------------------------------------------------------|
C#|---------------------------------------------------2--000-|
C#|-0--3p0---5---3p0---5---3---5------2---3---5---3------000-|
G#|-5-------------------------------4------------------------|
C#|----------------------------------------------------------|

C#|-------------|
G#|-------------|
C#|-00-----00---| This is pretty fast, not sure how many times.
C#|---3p2p0-----| looking for perfection, in which case make your own tab. :)
G#|-------------|
C#|-------------|


C#|----------------------------------------------------|
G#|----------------------------------------------------|
C#|----------------------------------------------------|
C#|----------------------------------------------------|
G#|--5---5-0---5-5---5-0-----5-5---5-5-x-5-8--8-7------|
C#|--0-x-8-0-x-7-0-x-5-0-x-x-7-0-x-8-0-x-7-5--5-5------| 2x

C#|-------------------------|
G#|-------------------------|
C#|-------------------------|
C#|-------------------------|
G#|-------------------------|
C#|-00-5h7h8---00-7h8h9-----|


C#|----------------------------------------------|
G#|----------------------------------------------|
C#|----------------------------------------------|
C#|--------------------------8-8\7-0---8-8-0-----|
G#|-12-10----8--5------------------0-------0-----|
C#|-10--8---10--5------------8-8\7-0---8-8-0-----|

C#|--------------------------------------------------------------|
G#|--------------------------------------------------------------|
C#|--------------------------------------------------------------|
C#|-----12-12-12---12-12-12----14-14-14-----14-14-14----8-7--0---|
G#|----------------------------------------------------------0---|
C#|-0-8----------8-----------10----------10-----------0-8-7--0---|


C#|-----------------------------------------------------------------|
G#|-----------------------------------------------------------------|
C#|-----------------------------------------------------------------|
C#|-12-0---12-12-12---12-12-12----14-14-14-----14-14-14----8-7--0---|
G#|----0--------------------------------------------------------0---|
C#|-8--0-8----------8-----------10----------10-----------0-8-7--0---|

(2:44)
C#|----------------------------------------------------------------------|
G#|----------------------------------------------------------------------|
C#|----------------------------------------------------------------------|
C#|----------------------------5-----------------------------------------|
G#|-12--7---8--7--5--5--5--5-7---8-7-8-10-7--12---8--10--7--5--5--5------|
C#|-10--8--10--0--5--8--0--------------------10--10---8--8--5--8--0------|
                         (While strumming open)

C#|---------------------------------------------------------------------------|
G#|---------------------------------------------------------------------------|
C#|---------------------------------------------------------------------------|
C#|---------------------------------------------------------------------------|
G#|-5---5-7-5---5-------------5-7-5---5-------------5-7-5---5-----------------|
C#|-----------8---7-5-7p5-3-0-------8---7-5-7p5-3-0-------8---7-5-7p5-3-0-----|

                    (3:11)
C#|--------------------------------------------------------------------------|
G#|--------------------------------------------------------------------------|
C#|--------------------------------------------------------------------------|
C#|--------------------------------------------------------------------------|
G#|-5-7-5---5-------10-7--8-7-5-5-5--5-7-8-7-8-10-8-10--12---8--10-7---------|
C#|-------8---7-5----8-8-10-0-5-8-0---------------------10--10---8-8--5-8--0-|
                   (Strumming open)                   (Palm mute these)


C#|--------------------------------------------------------------------------|
G#|--------------------------------------------------------------------------|
C#|--------------------------------------------------------------------------|
C#|-------5h7p5------------------5h7p5---5-7-8-7--7/10--8-7-5----------------|
G#|-5-7-8-------8-7-5---5--5-7-8-------8----------------------8-7-5----8--7--|
C#|-------------------8---------------------------------------------8--5--5--|


C#|--------------------------------------------------------------------------|
G#|--------------------------------------------------------------------------|
C#|--------------------------------------------------------------------------|
C#|---------5h7p5------------------5h7p5---5-7-8-7--7/10--888\7-10/121212-8\-|
G#|-5-5-7-8-------8-7-5---5--5-7-8-------8-----------------------------------|
C#|---------------------8----------------------------------------------------|


C#|----------5--------------------5h7p5---5-7-8-7------|
G#|-5-5-7-8-------8-7-5---5--5-7-8-------8-------------|
C#|---------------------8------------------------------|
C#|----------------------------------------------------|
G#|----------------------------------------------------|
C#|----------------------------------------------------|

(3:55-4:13) Good luck I dont know this little bit too well at all, I can just kinda fake it.


  (4:14)
C#|--------------------------------------------------------------------------|
G#|--------------------------------------------------------------------------|
C#|--------------------------------------------------------------------------|
C#|--------------------------------------------------------------------------|
G#|-10---7---8---7---5---5--5-7-8-7-8-10-8-10-12----8--10---7--x--5----------|
C#|--8---0--10---0---5---8--------------------10---10---8---8--5--8----------|

C#|--------------------------------------------------------------------------|
G#|--------------------------------------------------------------------------|
C#|--------------------------------------------------------------------------|
C#|--8--7--12--14------------------------------------------------------------|
G#|--x--x--------------------------------------------------------------------|
C#|--8--7---8--10------------------------------------------------------------|


C#|--------------------------------------------------------------------------|
G#|--------------------------------------------------------------------------|
C#|--------------------------------------------------------------------------|
C#|--------------------------------------------------------------------------|
G#|---10-7--8-7-7-5-5--5-7-8-7-8-10-8-10---12---8--10-7----------------------|
C#|----8-0-10-0-5-8-0----------------------10--10---8-8--5-8--0--------------|
                                              (Palm mute)


C#|---------------------------------------------------------------------------|
G#|---------------------------------------------------------------------------|
C#|---------------------------------------------------------------------------|
C#|---------5h7p5------------------5h7p5---5-7-8-7--7/10--8-7-5---------------|
G#|-5-5-7-8-------8-7-5---5--5-7-8-------8----------------------8-7-5----8--7-|
C#|---------------------8------------------------------------------------5--5-|
                                               (Chords sustained for a moment)

C#|--------------------------------------------------------------------------|
G#|--------------------------------------------------------------------------|
C#|--------------------------------------------------------------------------|
C#|-------5h7p5------------------5h7p5---5-7-8-7---10-8-7--10-8-7--12-8-7-6--|
G#|-5-7-8-------8-7-5---5--5-7-8-------8-------------------------------------|
C#|-------------------8------------------------------------------------------|


C#|------------------------------------------------------------------|
G#|------------------------------------------------------------------|
C#|------------------------------------------------------------------|
C#|------------------------------------------------------------------|
G#|-8-7-5------------------------------------------------------------|
C#|-------5/8\7-7-7-7/9\8-8-8-8/12\11-11-11-11/14\12-12-12-----------|





| /  slide up
| \  slide down
| h  hammer-on
| p  pull-off
| ~  vibrato
| +  harmonic
| x  Mute note
=============================================================================





Comments


Popular Days Of The New tabs & chords
Enemy Bass Tabs
Touch, Peel And Stand Bass Tabs
Freak Chords
Freak Tabs
Now Tabs
The Character/The Threat Tabs
The Down Town Tabs
Touch Peel And Stand Intro Tabs
Touch, Peel And Stand Tabs
Whimsical Tabs


Song lyrics



↑ Back to top | Tablatures and chords are parodies/interpretations of the original songs. You may use it for private study, scholarship, research or language learning purposes only
© 2014 AZChords.com Contact us | Privacy policy | DMCA | Add/correct tabs | Request tabs | Top 50 tabs