>
 >
The Down Town 1

The Down Town 1 Bass Tabs

Days Of The New - The Down Town 1 chords, tabs, tablatures, lyrics

Guitar lessons | Add/correct | Request | Top 50 tabs Artists:  A B C D E F G H I J K L M N O P Q R S T U V W X Y Z 0-9

The Down Town 1 Bass Tabs – Days Of The New

CD, Sheet music, Poster

Do you like The Down Town 1? Share with your friends now
Bass TabsBass Tabs v2TabsTabs v2Tabs v3
-------------------------------------------------------------------------------
                             The Down Town - Days of the New
                             From the album Days of the New
-------------------------------------------------------------------------------


Tuning:   Eb Standard

This isn't 100% correct, I am definitely not sure about the intro riff but 
this will work.  There are more fills in here than I am listing, it will be 
good learning for you and will teach more than a tab.

These notes are also not the proper timing or count, you should be able to hear the
structure of the song and figure it out.  I also did not write out the order,
I just gave you all the parts.


Intro Riff
G|---------------------------------------------------------------------------|
D|---------------------------------------------------------------------------|
A|----------------------------3/5-3-2-----3-2-3------------------------------|
E|-5---0-0-3---5---0-0-3---1-----------0-------------------------------------|

Verse w/o lyrics
G|---------------------------------------------------------------------------|
D|--------------------------------------------------------------------------:|
A|--------------------------------------------------------------------------:|
E|-5---3-3-3---5---3-3-3---5---3-3-3---1-------------------------------------|

Verse w/ lyrics
G|---------------------------------------------------------------------------|
D|--------------------------------------------------------------------------:|
A|--------------------------------------------------------------------------:|
E|-5---3-3-3---5---3-3-3---1--0-1-0-1--3-------------------------------------|

Chorus
G|---------------------------------------------------------------------------|
D|----------------------5-------------------------0-2------------------------|
A|--------------7-7---7---7-5------------------------------------------------|
E|-5-5---3-3--------------------5-5---3-3---1-1------------------------------|

After the second chorus you repeat on F with the close on E

Bridge
G|---------------------------------------------------------------------------|
D|---------------------------------------------------------------------------|
A|------------Repeats until closing on A-------------------------------------|
E|--3-3--1-1-------------------------------5-5-5-5---------------------------|

Fill @ 3:25ish
G|-----5---------------------------------------------------------------------|
D|---5---7-5-7---------------------------------------------------------------|
A|---------------------------------------------------------------------------|
E|---------------------------------------------------------------------------|

The last chorus he alternates between the open E and the octave at the 7th 
fret on the A string.
It repeats on the F at the end and closes on E again.





Comments


Popular Days Of The New tabs & chords
Shelf In The Room Bass Tabs
The Down Town Bass Tabs
The Downtown Bass Tabs
Enemy 2 Tabs
Enemy 3 Tabs
How Do You Know You? Tabs
Independant Slaves Tabs
Touch Peel And Stand Intro Tabs
Whimsical Tabs
Solitude Ukulele


Song lyrics



↑ Back to top | Tablatures and chords are parodies/interpretations of the original songs. You may use it for private study, scholarship, research or language learning purposes only
© 2014 AZChords.com Contact us | Privacy policy | DMCA | Add/correct tabs | Request tabs | Top 50 tabs