» » »

Days Of The New, The Down Town Tabs (ver.2)

Artists:  A B C D E F G H I J K L M N O P Q R S T U V W X Y Z # 

The Down Town Tabs (ver.2)

Days Of The New Tabs
 Rating:
4/5 (6 votes)
The Down Town lessons Tabs too difficult? Try these video lessons and learn fast
                                                  THE DOWN TOWN
                         As recorded by Days of the New
                 (From the 1997 Album DAYS OF THE NEW (YELLOW))

Words by Travis Meeks

Music by Travis Meeks, Todd Whitener, Jesse Vest, Matt Taul
Arranged by Travis Meeks

 Intro
  Moderate Rock Q=70
  A/E                                   Cmaj13/F            E
 4/4
  Gtr I
|-------------------------------------|---------------------------0-----------|
|-------------------------------------|-------0-(0)-----------------0-----0---|
|---2-----------------2---------------|-------------2-(2)-------1-----0h1---1-|
|-----2---2-------2-----2---2-------2-|-----3-------------3---2---------------|
|-0-----------------0-----------------|---3-----------------------------------|
|-------0---0-3b4---------0---0-3b4---|-1-------------------0-----------------|


   Band kick in
    Gtrs I, II
||--------------------------------------|
||o-------------------------------------|
||----2-----------------2---------------|
||------2---2-------2-----2---2-------2-|
||o-0-----------------0-----------------|
||--------0---0-3b4---------0---0-3b4---|


|---------------------------0-------------||
|-------0-(0)-----------------0-----0----o||
|-------------2-(2)-------1-----0h1---1---||
|-----3-------------3---2-----------------||
|---3------------------------------------o||
|-1-------------------0-------------------||


  A/E
|-------------------------------------|
|-------------------------------------|
|---2-----------------2---------------|
|-----2---2-------2-----2---2-------2-|
|-0-----------------0-----------------|
|-------0---0-3b4---------0---0-3b4---|


                                  Pre-Verse
  Cmaj13/F                E        Aadd9   Em7/Aadd9 Aadd9     Em7/G
|-------------------------^0---||--0---0-0-0-0-0-0---0-(0)-0-0-0-|
|-------0-(0)-------------^0---||o-0---0-0-0-0-0-0---0-(0)-0-0-0-|
|-------------2-(2)-------^1---||--6-x-6-6-4-4-6-6-x-6-(6)-6-6-4-|
|-----3-------------3-----^2---||--7-x-7-7-5-5-7-7-x-7-(7)-7-7-5-|
|---3-------------------x-^2---||o-7-x-7-7-5-5-7-7-x-7-(7)-7-7-5-|
|-1-------------------0-x------||--5---5-5-3-3-5-5---5-(5)-5-5-3-|


  1.
  Aadd9         Em7/G Cmaj13/F  Em7/G
|-0---0-(0)-0-0-0-0---0-(0)-0-0-0--||
|-0---0-(0)-0-0-0-0---0-(0)-0-0-0-o||
|-6-x-6-(6)-6-6-4-2-x-2-(2)-2-2-4--||
|-7-x-7-(7)-7-7-5-3-x-3-(3)-3-3-5--||
|-7-x-7-(7)-7-7-5-3-x-3-(3)-3-3-5-o||
|-5---5-(5)-5-5-3-1---1-(1)-1-1-3--||


                                      Verse 1 & 2
  2.
                                   $
   Aadd9           Cmaj13/F            Aadd9   Em7/Aadd9           Em7/G
|--0---0-(0)-0-0-0-0---------------||--0---0-0-0-0-0-0---0-(0)-0-0-0--|
|--0---0-(0)-0-0-0-0-------0-(0)---||o-0---0-0-0-0-0-0---0-(0)-0-0-0--|
|--6-x-6-(6)-6-6-4-2-------------2-||--6-x-6-6-4-4-6-6-x-6-(6)-6-6-4--|
|--7-x-7-(7)-7-7-5-3-x---3-------3-||--7-x-7-7-5-5-7-7-x-7-(7)-7-7-5--|
|--7-x-7-(7)-7-7-5-3-x-3-----------||o-7-x-7-7-5-5-7-7-x-7-(7)-7-7-5--|
|--5---5-(5)-5-5-3-1-1-------------||--5---5-5-3-3-5-5---5-(5)-5-5-3--|


  1.,2.,3.                      4.
  Cmaj13/F                Em7/G                         Em7/G
                             4x
|-0-(0)-0-0-0-0-(0)-0-0-0-0--||-0-(0)-0-0-0-0-0-0-0-0-0-0-||
|-0-(0)-0-0-0-0-(0)-0-0-0-0-o||-0-(0)-0-0-0-0-0-0-0-0-0-0-||
|-2-(2)-2-2-2-2-(2)-2-2-2-4--||-2-(2)-2-2-2-2-2-2-2-2-2-4-||
|-3-(3)-3-3-3-3-(3)-3-3-3-5--||-3-(3)-3-3-3-3-3-3-3-3-3-5-||
|-3-(3)-3-3-3-3-(3)-3-3-3-5-o||-3-(3)-3-3-3-3-3-3-3-3-3-5-||
|-1-(1)-1-1-1-1-(1)-1-1-1-3--||-1-(1)-1-1-1-1-1-1-1-1-1-3-||


 Chorus
  Aadd9           Em7/G
|-0---0-(0)-0-0-0-0---0-(0)-0-0-0-|
|-0---0-(0)-0-0-0-0---0-(0)-0-0-0-|
|-6---6-(6)-6-6-6-4-x-4-(4)-4-4-4-|
|-7-x-7-(7)-7-7-7-5-x-5-(5)-5-5-5-|
|-7-x-7-(7)-7-7-7-5-x-5-(5)-5-5-5-|
|-5---5-(5)-5-5-5-3---3-(3)-3-3-3-|


                                               To Coda
  E         E7          Aadd9           Em7/G
|-0-0-0-0-0-0-0-0-0-0-|-0---0-(0)-0-0-0-0---0-(0)-0-0-0-|
|-0-0-0-0-3-3-3-3-3-3-|-0---0-(0)-0-0-0-0---0-(0)-0-0-0-|
|-1-1-1-1-1-1-1-1-1-1-|-6---6-(6)-6-6-6-4-x-4-(4)-4-4-4-|
|-2-2-2-2-2-2-2-2-2-2-|-7-x-7-(7)-7-7-7-5-x-5-(5)-5-5-5-|
|-2-2-2-2-2-2-2-2-2-2-|-7-x-7-(7)-7-7-7-5-x-5-(5)-5-5-5-|
|-0-0-0-0-0-0-0-0-0-0-|-5---5-(5)-5-5-5-3---3-(3)-3-3-3-|


                   Pre-Verse
  Cmaj13/F          A/E
|-0-0-0-0-0-0-0--||-0-----------------------------------|
|-0-0-0-0-0-0-0--||-0-----------------------------------|
|-2-2-2-2-2-2-2--||-2-2-----------------2---------------|
|-3-3-3-3-3-3-3--||-2---2---2-------2-----2---2-------2-|
|-3-3-3-3-3-3-3--||-0-----------------0-----------------|
|-1-1-1-1-1-1-1--||-------0---0-3b4---------0---0-3b4---|


  Cmaj13/F            E
|---------------------------0-----------|
|-------0-(0)-----------------0-----0---|
|-------------2-(2)-------1-----0h1---1-|
|-----3-------------3---2---------------|
|---3-----------------------------------|
|-1-------------------0-----------------|


  A/E
|-------------------------------------|
|-------------------------------------|
|---2-----------------2---------------|
|-----2---2-------2-----2---2-------2-|
|-0-----------------0-----------------|
|-------0---0-3b4---------0---0-3b4---|


                                 Chorus 2 cont.
                  D.S. al Coda    &
  Cmaj13/F            E            Cmaj13/F
|-------------------------^0---||--0-0-0-0-0-0-0-0-0---||
|-------0-(0)-------------^0---||--0-0-0-0-0-0-0-0-0---||
|-------------2-(2)-------^1---||--2-2-2-2-2-2-2-2-2---||
|-----3-------------3-----^2---||--3-3-3-3-3-3-3-3-3---||
|---3-------------------x-^2---||--3-3-3-3-3-3-3-3-3---||
|-1-------------------0-x------||--1-1-1-1-1-1-1-1-1---||


                                       A/E
|-0-0-0-0-0-0-0-0-0-|-0-0-0-0-0-0-0--|-------------------------------------|
|-0-0-0-0-0-0-0-0-0-|-0-0-0-0-0-0-0--|-------------------------------------|
|-2-2-2-2-2-2-2-2-2-|-2-2-2-2-2-2-2--|---2-----------------2---------------|
|-3-3-3-3-3-3-3-3-3-|-3-3-3-3-3-3-3--|-----2---2-------2-----2---2-------2-|
|-3-3-3-3-3-3-3-3-3-|-3-3-3-3-3-3-3--|-0-----------------0-----------------|
|-1-1-1-1-1-1-1-1-1-|-1-1-1-1-1-1-1--|-------0---0-3b4---------0---0-3b4---|


 Interlude
  Cmaj13/F            E                   A/E
|---------------------------0-----------|-------------------------------------|
|-------0-(0)-----------------0-----0---|-------------------------------------|
|-------------2-(2)-------1-----0h1---1-|---2-----------------2---------------|
|-----3-------------3---2---------------|-----2---2-------2-----2---2-------2-|
|---3-----------------------------------|-0-----------------0-----------------|
|-1-------------------0-----------------|-------0---0-3b4---------0---0-3b4---|


  Cmaj13/F            E
|---------------------------0-----------||
|-------0-(0)-----------------0---------||
|-------------2-(2)-------1-----1-------||
|-----3-------------3---2---------2-----||
|---3-----------------------------------||
|-1-------------------0-------------0---||


   Bridge
    Em7/G             Cmaj13/F             Em7/G
||--0-0-0-0-0-0-0-0-|-0-0-0-0-0--0--||-||--0---0-(0)-0-0-0-0---0-(0)-0-0-0-|
||o-0-0-0-0-0-0-0-0-|-0-0-0-0-0--0-o||-||o-0---0-(0)-0-0-0-0---0-(0)-0-0-0-|
||--4-4-4-4-4-4-4-4-|-2-2-2-2-2--2--||-||--4-x-4-(4)-4-4-4-4-x-4-(4)-4-4-4-|
||--5-5-5-5-5-5-5-5-|-3-3-3-3-3--3--||-||--5-x-5-(5)-5-5-5-5-x-5-(5)-5-5-5-|
||o-5-5-5-5-5-5-5-5-|-3-3-3-3-3--3-o||-||o-5-x-5-(5)-5-5-5-5-x-5-(5)-5-5-5-|
||--3-3-3-3-3-3-3-3-|-1-1-1-1-1--1--||-||--3---3-(3)-3-3-3-3---3-(3)-3-3-3-|


  Cmaj13/F
|-0---0-(0)-0-0-0-0---0-(0)-0-0-0--||
|-0---0-(0)-0-0-0-0---0-(0)-0-0-0-o||
|-2-x-2-(2)-2-2-2-2-x-2-(2)-2-2-2--||
|-3-x-3-(3)-3-3-3-3-x-3-(3)-3-3-3--||
|-3-x-3-(3)-3-3-3-3-x-3-(3)-3-3-3-o||
|-1---1-(1)-1-1-1-1---1-(1)-1-1-1--||


 Out-Chorus
  Aadd9           Em7/G             E       E7
|-0---0-(0)-0-0-0-0---0-(0)-0-0-0-|-0-0-0-0-0-0-0-0-0-0-|
|-0---0-(0)-0-0-0-0---0-(0)-0-0-0-|-0-0-0-0-3-3-3-3-3-3-|
|-6---6-(6)-6-6-6-4-x-4-(4)-4-4-4-|-1-1-1-1-1-1-1-1-1-1-|
|-7-x-7-(7)-7-7-7-5-x-5-(5)-5-5-5-|-2-2-2-2-2-2-2-2-2-2-|
|-7-x-7-(7)-7-7-7-5-x-5-(5)-5-5-5-|-2-2-2-2-2-2-2-2-2-2-|
|-5---5-(5)-5-5-5-3---3-(3)-3-3-3-|-0-0-0-0-0-0-0-0-0-0-|


  Aadd9           Em7/G             Cmaj13/F
|-0---0-(0)-0-0-0-0---0-(0)-0-0-0-|-0-0-0-0-0-0-0-------|
|-0---0-(0)-0-0-0-0---0-(0)-0-0-0-|-0-0-0-0-0-0-0-------|
|-6---6-(6)-6-6-6-4-x-4-(4)-4-4-4-|-2-2-2-2-2-2-2-------|
|-7-x-7-(7)-7-7-7-5-x-5-(5)-5-5-5-|-3-3-3-3-3-3-3-------|
|-7-x-7-(7)-7-7-7-5-x-5-(5)-5-5-5-|-3-3-3-3-3-3-3-------|
|-5---5-(5)-5-5-5-3---3-(3)-3-3-3-|-1-1-1-1-1-1-1-3b4h5-|


    Aadd9           Em7/G
||--0---0-(0)-0-0-0-0---0-(0)-0-0-0--|
||o-0---0-(0)-0-0-0-0---0-(0)-0-0-0--|
||--6---6-(6)-6-6-6-4-x-4-(4)-4-4-4--|
||--7-x-7-(7)-7-7-7-5-x-5-(5)-5-5-5--|
||o-7-x-7-(7)-7-7-7-5-x-5-(5)-5-5-5--|
||--5---5-(5)-5-5-5-3---3-(3)-3-3-3--|


  E       E7            Aadd9           Em7/G             Cmaj13/F
                                                                            3x
|-0-0-0-0-0-0-0-0-0-0-|-0---0-(0)-0-0-0-0---0-(0)-0-0-0-|-0-0-0-0-0-0-0-0---||
|-0-0-0-0-3-3-3-3-3-3-|-0---0-(0)-0-0-0-0---0-(0)-0-0-0-|-0-0-0-0-0-0-0-0--o||
|-1-1-1-1-1-1-1-1-1-1-|-6---6-(6)-6-6-6-4-x-4-(4)-4-4-4-|-2-2-2-2-2-2-2-2---||
|-2-2-2-2-2-2-2-2-2-2-|-7-x-7-(7)-7-7-7-5-x-5-(5)-5-5-5-|-3-3-3-3-3-3-3-3---||
|-2-2-2-2-2-2-2-2-2-2-|-7-x-7-(7)-7-7-7-5-x-5-(5)-5-5-5-|-3-3-3-3-3-3-3-3--o||
|-0-0-0-0-0-0-0-0-0-0-|-5---5-(5)-5-5-5-3---3-(3)-3-3-3-|-1-1-1-1-1-1-1-1---||


  H.=H                                    Q=60              H.=H
  Cmaj13/F                                                  E
|-0-0-0-0-0-0-0-0-0-|-0-0-0-0-0-0-0-0-0-|-0-0-0-0-0-0-0-0-|-^0----*|
|-0-0-0-0-0-0-0-0-0-|-0-0-0-0-0-0-0-0-0-|-0-0-0-0-0-0-0-0-|-^0----*|
|-2-2-2-2-2-2-2-2-2-|-2-2-2-2-2-2-2-2-2-|-2-2-2-2-2-2-2-2-|-^1----*|
|-3-3-3-3-3-3-3-3-3-|-3-3-3-3-3-3-3-3-3-|-3-3-3-3-3-3-3-3-|-^2----*|
|-3-3-3-3-3-3-3-3-3-|-3-3-3-3-3-3-3-3-3-|-3-3-3-3-3-3-3-3-|-^2----*|
|-1-1-1-1-1-1-1-1-1-|-1-1-1-1-1-1-1-1-1-|-1-1-1-1-1-1-1-1-|-^0----*|



***************************************************************************************
***************************************************************************************
            
Submit corrections

comments powered by Disqus
↑ Back to top | Days Of The New Tabs for The Down Town. Lyrics for acoustic guitar and electric guitar. Tablatures and chords are parodies/interpretations of the original songs. You may use it for private study, scholarship, research or language learning purposes only