» » »

Shelf In The Room Tabs (ver.6)

Artists:  A B C D E F G H I J K L M N O P Q R S T U V W X Y Z # 

Shelf In The Room Tabs (ver.6)

Days Of The New
Rating:
0/5 (0 votes)

Hard to play? Try these video lessons and learn fast.
                Db |---------------------------------------------------------------------------------|
Bb |------------------------------------------------------------------------6-6-6\---|
Gb |--------------5--------------------------------------------------------5-5-5\----|
Db |--------3-5/7----------3-5/7-5-3p0h3------5p3-----------------3/5-3p0------------|
Ab |----3/5------------3/5---------------5-------5p3---------------------------------|
Db |------------------------------------------------5p0--3/5-3p0---------------------|

Db |---------------------------------------------------------------------------------|
Bb |----5h6----5h6------------------------------6-6--12-12^13^12h10----10------------|
Gb |---5----7-5----7--7-7p5---5----------------5-5---12-12^13^12----12----12p10h12~/-|
Db |------------------------7---7-5p3h5-3-0-3----------------------------------------|
Ab |---------------------------------------------------------------------------------|
Db |---------------------------------------------------------------------------------|
            
Hard to play? Try these video lessons and learn fast. | Correct




comments powered by Disqus
↑ Back to top | Tablatures and chords are parodies/interpretations of the original songs. You may use it for private study, scholarship, research or language learning purposes only