» » »

Days Of The New, Seasons Change Tabs (ver.1)

Artists:  A B C D E F G H I J K L M N O P Q R S T U V W X Y Z # 

Seasons Change Tabs (ver.1)

Days Of The New Tabs
Rating:
5/5 (2 votes)
Seasons Change lessons Tabs too difficult? Try these video lessons and learn fast
                
Half-Baked Soundtrack

Ok this is off the half-baked soundtrack.Pretty simple but fun to play.

Tuning: Db Ab Db Gb Bb Db

-----------------------------------------------------------------------------|
-----------------------------------------------------------------------------|
-4-------2-------4-------2-------4\--7---2-------4-------6-------------------|
-0-------0-------0-------0-------0\--0---0-------0---------------------------|
-2-------0-------2-------0-------2\--5---0-------2-------4-------------------|
-----------------------------------------------------------------------------|
Introducion: Right Channel

-----------------------------------------------------------------------------|
-----------------------------------------------------------------------------|
-9-------2-------4-------2-------4\--7---2-------4-------6-------------------|
-0-------0-------0-------0-------0\--0---0-------0---------------------------|
-7-------0-------2-------0-------2\--5---0-------2-------4-------------------|
-----------------------------------------------------------------------------|
Introduction: Right Channel

-------0-------0-------0-------0-------0-------0-------0-------0-------------|
-----0-------0-------0-------0-------0-------0-------0-------0---------------|
-----------------------------------------------------------------------------|
---4-------4-------4-------4---------------4-------4-------4-----------------|
-2-------0-----------------------------------------------0-------------------|
-----------------5-------4-------2\4-----4-------5---------------------------|
Main Riff: Left Channel

-4---0-7---0-2-0-----0-2-------0-------0-------0-----0-2-----0-2-------------|
-------------------0---------0-------0-------0-----0-------0-----------------|
---4-----2-------0---------2-------2-------2-----0-------2-------------------|
-------------------------4-------2-------4-----------------------------------|
-----------------------------------------------------------------------------|
-----------------------------------------------------------------------------|
Solo

-4-5-4h5p4---4-5-7----4h5p4---4-------------------------------9p7---7h9--9-7-|
-----------5----------------5---5-3-0-3-5b6r5---3p0-3-5-3-5b6-----7----------|
-----------------------------------------------------------------------------|
-----------------------------------------------------------------------------|
-----------------------------------------------------------------------------|
-----------------------------------------------------------------------------|


--------------------------------------------------------------2--------------|
-7-5------------3-5-5b6r5-3p0-3----3-5-5b6r5-3p0-3----3-3p2-0---3p2----------|
-----7-6-4----4-----------------\4-----------------\4---------------4-2------|
-----------------------------------------------------------------------------|
-----------------------------------------------------------------------------|
-----------------------------------------------------------------------------|
            

comments powered by Disqus
↑ Back to top | Days Of The New Tabs for Seasons Change. Lyrics for acoustic guitar and electric guitar. Tablatures and chords are parodies/interpretations of the original songs. You may use it for private study, scholarship, research or language learning purposes only