» » »

Red Tabs (ver.1)

Artists:  A B C D E F G H I J K L M N O P Q R S T U V W X Y Z # 

Red Tabs (ver.1)

Days Of The New
Rating:
0/5 (0 votes)

Hard to play? Try these video lessons and learn fast.
                Days of the New (RED)

v = vibrato
x = mute
h = hammer on
p = pull off
~ = strumming
/ = slides
^ = bend
()= fretted note, not picked

         *note- i'm not sure exactly what this instrumental is called.  it comes after
                'dancing with the wind', and after the 'champaigne orch'.  starts at
                about 7:50 on track 12 of the RED album.


[7:51]
Ab---------------------------------------------------------|
Gb---------------------------------------------------------|
E---0----0----0----0----0----0-----------------------------|
Db---------------------------------------------------------|
A-------0------2-------0------2p0--------------------------|
Db-5-5----0--3----3-5----0--3------------------------------|

Ab---------------------------------------------------------|
Gb---------------------------------------------------------|
E----------------------------------------------------------|
Db-----0----0----0----0----0-------------------------------|
A-------0-------2------0------2p0--------------------------|
Db-5--5----0-3----0--5----0-3------------------------------|


[8:02]
Ab---------------------------------------------------------|
Gb---------------------------------------------------------|
E---0---0---0---0---0---0----------------------------------|  x2
Db----0---0---0---0---0------------------------------------|
A------0-----2-----0-----2p0-------------------------------|
Db-5-5---0-3---3-5---0-3-----------------------------------|


[8:13]
Ab---------------------------------------------------------|
Gb--0---------0--------------------------------------------|
E-----0---0-----0---0---0----------------------------------|
Db------0---0-----0---0------------------------------------|
A------0-----2-----0-----2p0-------------------------------|
Db-5-5---0-3---3-5---0-3-----------------------------------|

Ab------------------0-----0--------------------------------|
Gb--0---------0--------------------------------------------|
E-----0---0-----0-----0------------------------------------| x5
Db------0---0-----0-----0----------------------------------|
A------0-----2-----0-----2---------------------------------|
Db-5-5---0-3---0-5---0-3-----------------------------------|


[8:44]
Ab---------------------------------------------------------|
Gb---------------------------------------------------------|
E----------------------------------------------------------| x4
Db-5-5-8-----0---------0--------0--------------------------|
A--4-4-7--4/7-2v----4/7-0----4/7-2p0-----------------------|
Db-5-5-8-5---------5--------5------------------------------|


[9:04]
Ab---------------------------------------------------------|
Gb---------------------------------------------------------|
E---0---0---0---0---0--------------------------------------|
Db----0---0---0---0----3--x-3------------------------------|
A------0-----2-----0---2--x-2------------------------------|
Db-5-5---0-3---3-5---0-3--x-3------------------------------|
            
Hard to play? Try these video lessons and learn fast. | Correct




comments powered by Disqus
↑ Back to top | Tablatures and chords are parodies/interpretations of the original songs. You may use it for private study, scholarship, research or language learning purposes only