>
 >
Now 1

Now 1 Guitar Tabs

Days Of The New - Now 1 chords, tabs, tablatures, lyrics

Guitar lessons | Add/correct | Request | Top 50 tabs Artists:  A B C D E F G H I J K L M N O P Q R S T U V W X Y Z 0-9

Now 1 Guitar Tabs – Days Of The New

CD, Sheet music, Poster

Do you like Now 1? Share with your friends now
Bass TabsTabsTabs v2Tabs v3
tune half step down (Eb Ab Db Gb Bb Eb)


rhythm gtr I (left)
|----|---------------------------------|---------------------------------|
|----|---------------------------------|---------------------------------|
|----|---------------------------------|---------------------------------|
|----|---------------------------------|-----------------12+-------------|
|----|-12+-----------------------------|-12+-----------------------------|
|-12+|------------------------------12+|---------------------------------|
|
|rhythm gtr II (right) pattern doesn't change until chorus
|----|---------------------------------|---------------------------------|
|----|---------------------------------|---------------------------------|
|----|-9-----8-----7---5-----5---------|-9-----8-----7---5-----5---------|
|----|-----7-----7---7-----7-----7-5/7-|-----7-----7---7-----7-----7-5/7-|
|----|---------------------------------|---------------------------------|
|----|---------------------------------|---------------------------------|


|---------------------------------|---------------------------------|
|---------------------------------|---------------------------------|
|---------------------------------|---------------------------------|
|---------------------------------|---------------------------------|
|-0-------------------------------|-0---------------------------3-2-|
|-------------------------------0-|---------------------------------|
|
|---------------------------------|---------------------------------|
|---------------------------------|---------------------------------|
|-9-----8-----7---5-----5---------|-9-----8-----7---5-----5---------|
|-----7-----7---7-----7-----7-5/7-|-----7-----7---7-----7-----7-5/7-|
|---------------------------------|---------------------------------|
|---------------------------------|---------------------------------|



rhythm gtr I

|-0-------------------------------|-0------------------------------------|
|---1---0---1-------1---0---1-----|---1---0---1-------1---0--------------|
|-----2---------------2-----------|-----2---------------2----------------|
|-------------2-1-0---------------|-------------2-1-0--------------------|
|-----------------------------3-2-|--------------------------------3p0-3-|
|---------------------------------|--------------------------0-3h5-------|

|-0-------------------------------|-------------0-------------------|
|---1---0---1-------1---0---1-----|-------------1-------------------|
|-----2---------------2---------0-|---0-----0---2-------------------|
|-------------2-1-0-----------0---|-----0-----0-2-------------------|
|---------------------------------|-3-----2-----0-------------------|
|---------------------------------|---------------------------------|

additional gtr to last measure
|---------------------------------|
|---------------------------------|
|/5-------------------------------|
|---7-5---------------------------|
|-------5h6-5\3--0----------------|
|---------------------------------|



Verse rhythm gtr I

|-0-------------------------------|-0------------------------------------|
|---1---0---1-------1---0---1-----|---1---0---1-------1---0--------------|
|-----2---------------2-----------|-----2---------------2----------------|
|-------------2-1-0---------------|-------------2-1-0--------------------|
|-----------------------------3-2-|--------------------------------3p0-3-|
|---------------------------------|--------------------------0-3h5-------|

|-0-------------------------------|
|---1---0---1-------1---0---1-----|
|-----2---------------2---------0-|
|-------------2-1-0-----------0---|
|---------------------------------|
|---------------------------------|

|-------------0---------------------------------------|
|-------------3---------0h1-3-1---1-----1-0h1-3-1-----|
|---0-----0---2-----------------2-----------------2-0-|
|-----0-----0-0-----0-----------------0---------------|
|-3-----2-----x-------3-------------------------------|
|-------------2---2-----------------------------------|

Chorus (both rhythm gtrs)

|-3---3xxxx3---3xxxx3---3xx0---00-0---|
|-5---5xxxx5---5xxxx5---5xx3---33---3-|
|-5---5xxxx5---5xxxx5---5xx2---22-----|3x
|-5---5xxxx5---5xxxx5---5xx0---00-----|
|-3---3xxxx3---3xxxx3---3xxx---xx-----|
|--------------------------2---22-----|


|-3---3---3---3---3---3---3---3---|-3---3---3---3---3---------------|
|-3---3---3---3---3---3---3---3---|-3---3---3---3---3---------------|
|-0---0---0---0---0---0---0---0---|-0---0---0---0---0---------------|
|-2---2---2---2---2---2---2---2---|-2---2---2---2---2---------------|
|-3---3---3---3---3---3---3---3---|-3---3---3---3---3---------------|
|---------------------------------|---------------------------------|


II Chorus (both rhythm gtrs)

|-3---3xxxx3---3xxxx3---3xx0---00-0---|
|-5---5xxxx5---5xxxx5---5xx3---33---3-|
|-5---5xxxx5---5xxxx5---5xx2---22-----|3x
|-5---5xxxx5---5xxxx5---5xx0---00-----|
|-3---3xxxx3---3xxxx3---3xxx---xx-----|
|--------------------------2---22-----|

|-3---3---3---3---3---3---3---3---|-3---3---3---3---3---3--xx-2--xx-|
|-3---3---3---3---3---3---3---3---|-3---3---3---3---3---3--xx-3--xx-|
|-0---0---0---0---0---0---0---0---|-0---0---0---0---0---0--xx-2--xx-|
|-0---0---0---0---0---0---0---0---|-0---0---0---0---0---0--xx-0--xx-|
|-2---2---2---2---2---2---2---2---|-2---2---2---2---2---2--xx-------|
|-3---3---3---3---3---3---3---3---|-3---3---3---3---3---3--xx-------|


|-3---3---3---3---3---3---3---3---|-3---3---3---3---3---3--xx-2--xx-|
|-3---3---3---3---3---3---3---3---|-3---3---3---3---3---3--xx-3--xx-|
|-0---0---0---0---0---0---0---0---|-0---0---0---0---0---0--xx-2--xx-|x4
|-2---2---2---2---2---2---2---2---|-2---2---2---2---2---2--xx-0--xx-|
|-3---3---3---3---3---3---3---3---|-3---3---3---3---3---3--xx-------|
|---------------------------------|---------------------------------|


|-3---3xxxx3---3xxxx3---3xx0---00-0-0-|
|-3---3xxxx3---3xxxx3---3xx0---00-0-0-|
|-0---0xxxx0---0xxxx0---0xx0---00-0-0-|4x
|-2---2xxxx2---2xxxx2---2xx2---22-2-2-|
|-2---2xxxx2---2xxxx2---2xx2---22-2-2-|
|-0---0----0---0----0---0--0---00-0-0-|


|-3---3---3---3---3---3---3---3---|-3---3---3---3---3---3--xx-2--xx-|
|-3---3---3---3---3---3---3---3---|-3---3---3---3---3---3--xx-3--xx-|
|-0---0---0---0---0---0---0---0---|-0---0---0---0---0---0--xx-2--xx-|x3
|-2---2---2---2---2---2---2---2---|-2---2---2---2---2---2--xx-0--xx-|
|-3---3---3---3---3---3---3---3---|-3---3---3---3---3---3--xx-------|
|---------------------------------|---------------------------------|



|-3---3---3---3---3---3---3---3---|-3---3---3---3------------|
|-3---3---3---3---3---3---3---3---|-3---3---3---3------------|
|-0---0---0---0---0---0---0---0---|-0---0---0---0------------|
|-2---2---2---2---2---2---2---2---|-2---2---2---2------------|
|-3---3---3---3---3---3---3---3---|-3---3---3---3---------3--|
|---------------------------------|-----------------2h-3-----|


solo gtr I (for the background play 1st bar of verse rhythm gtr I)
|------------------------------|-------------------------------------------|
|------------------------------|-------------------------------------------|
|----/4-0----------------------|-------------------------------------------|
|-----------2-1-0--------------|-------------2-1h2p1-0---------------------|
|--------------------3p0-3-3---|-0-----------------------3p0-3h5-3p0-3h5-0-|
|------------------------------|-----5p3-5---------------------------------|

|---------------------------------------------------|
|---------------------------------------------------|
|---------------------------------------------------|
|---------------------------------------------------|
|---------------------0h2-2-2h3-3---2---3---5---3-2-|
|---0h2-2-2h3-3-3h5-5-------------------------------|


|------------------------------------------|
|------------------------------------------|
|------------------------------------------|
|-4b---0-2p0-2h4-2-------------------------|
|----------------------3-5p3-5h6-5---3h5-3-|
|------------------------------------------|
|
|solo gtr II
|------------------------------------------|
|------------------------------------------|
|------------------------------------------|
|------------------------------------------|
|------------------------------------3h5-3-|
|------------------------------------------|

solo gtr I
|-----------------------------------------------------------------|
|-----------------------------------------------------------------|
|---------0-2-------------0-2-------------0-2-------------0-2-----|
|-----0-1-----2-1-0---0-1-----2-1-0---0-1-----2-1-0---0-1-----2-1-|
|-0---------------------------------------------------------------|
|-----------------------------------------------------------------|

|---------------------------------------------------|
|---------------------------------4\3---3---1---1---|
|---------0-2---2---2---0-2-0-2---------------2-----|
|-0---0-1-------------------------------------------|
|---------------------------------------------------|
|---------------------------------------------------|

|------------------------------------------------------------|
|-1-3-4-1-3-4-1-3-4/8-7-5------------------------5-----------|
|-------------------------8-7-5---7---5----------5-----------|
|-------------------------------7---7------7-5-7---7-5-7-5-7-|
|------------------------------------------------------------|
|------------------------------------------------------------|

|---5-----------------------------------------|
|---5-----------------------------------------|
|-5-------------------------------------------|
|------5---5h6p5------------------------------|
|----------------7-5-3-------5----------------|
|------------------------5-3------------------|
|
|solo gtr I
|----------------------------5---5---5---5xx5-|
|----------------------------5---5---5---5xx5-|
|----------------------------5---5---5---5xx5-|
|----------------------------5---5---5---5xx5-|
|---------------------------------------------|
|---------------------------------------------|

solo gtr I

|-5------------------------------------------|
|---8b~~-8---7h8-7-5h7p5---5-----------------|
|------------------------8---8-7h8-7-5-7-5---|
|------------------------------------------7-|
|--------------------------------------------|
|--------------------------------------------|

|-------------------------------------------|
|-----------------------------------------5-|
|-5-------------------------------------5-5-|
|---------------------------------------5-5-|
|------5/7---3------------5--/7-6-5-6-7-----|
|----------------5--3--2--------------------|


|-5---7b~--5----------------5--8----10b~--8h10-|
|---------------------5-7-8--------------------|
|-----------------5-7--------------------------|
|---------------5------------------------------|
|----------------------------------------------|
|----------------------------------------------|

|-8-------------------------------------------------
|------10--8--7--8-----7----------------------------
|-------------------9-----8--9--8--7--5--7--8--7--5-
|---------------------------------------------------
|---------------------------------------------------
|---------------------------------------------------

-------------------------|
-------------------------|
----5--8p7p5-8p7p5-8p7p5-|
-7-----------------------|
-------------------------|
-------------------------|

solo gtr II

|---5--8---7-5-----------------------------------|
|--5---------------------------------------------|
|-5--------------7h8---7-------------------------|
|--------------------------5--7--5-/10--7--5--7--|
|------------------------------------------------|
|------------------------------------------------|

|---------------------------------4-5-7-----/8------|
|---------------------------5-7-8---------------10--|
|------------------5----5-7-------------------------|
|-------5----5-6-7----------------------------------|
|-5-6-7---------------------------------------------|
|---------------------------------------------------|

|/12-12-12-12---------------------------------------------------------------|
|---------------13-13-13-13-13-12---12---12-12-12\8-8---5-5-5-5-5-3---5-----|
|-------------------------------------------------------------------------0-|
|---------------------------------------------------------------------------|
|---------------------------------------------------------------------------|
|---------------------------------------------------------------------------|

|/5--------------------0--------|
|--------5---3-----0------------|
|-------------------------------|
|-------------------------------|
|-------------------------------|
|-------------------------------|


both rhythm gtrs

|-3---3xxxx3---3xxxx3---3xx0---00-0-0-|
|-3---3xxxx3---3xxxx3---3xx0---00-0-0-|
|-0---0xxxx0---0xxxx0---0xx0---00-0-0-|3x
|-2---2xxxx2---2xxxx2---2xx2---22-2-2-|
|-2---2xxxx2---2xxxx2---2xx2---22-2-2-|
|-0---0----0---0----0---0--0---00-0-0-|



|-3---3xxxx3---3xxxx3---3xx0---00-----|
|-3---3xxxx3---3xxxx3---3xx0---00-----|
|-0---0xxxx0---0xxxx0---0xx0---00-----|
|-2---2xxxx2---2xxxx2---2xx2---22-----|
|-2---2xxxx2---2xxxx2---2xx2---22-2h3-|
|-0---0----0---0----0---0--0---00-----|


rhythm gtr 1
|-------------------------------|---------------------------------|
|-------------------------------|---------------------------------|
|-------------------------------|---------------------------------|
|-------2---2----------2---2----|-------2---2-------2---2---------|
|-2--------------0h2-2----------|-----------------------------2h3-|
|-----0------0---------------0--|-2h3-3-------0h2-2-------2-------|

|-------------------------------|---------------------------------|
|-------------------------------|---------------------------------|
|-------------------------------|---------------------------------|
|-------2---2----------2---2----|-------2---2-------2---2---------|
|-2--------------0h2-2----------|---------------------------------|
|-----0------0---------------0--|-2h3-3-------0h2-2-------2---2h3-|
|
|rhythm gtr 2
|-------------------------------|---------------------------------|
|-------------------------------|---------------------------------|
|-------9-----------------------|-------9-------------------------|
|-----------9-9-9-9-9-7---7-7-9-|-----------9-9-9-9-9-7---7-7-9---|
|-7-7-7-------------------------|-7-7-7---------------------------|
|-------------------------------|---------------------------------|


|-------------------------------|---------------------------------|
|-------------------------------|---------------------------------|
|-------------------------------|---------------------------------|
|-------2---2----------2---2----|-------2---2-------2---2---------|
|-----2----------0h2-2----------|-----------------------------2h3-|
|-0----------0---------------0--|-2h3-3-------0h2-2-------2-------|
|
|-------------------------------|---------------------------------|
|-------------------------------|---------------------------------|
|-------9-----------------------|-------9-------------------------|
|-----------9-9-9-9-9-7---7-7-9-|-----------9-9-9-9-9-7---7-7-9---|
|-7-7-7-------------------------|-7-7-7---------------------------|
|-------------------------------|---------------------------------|


|-------------------------------|---------------------------------|---
|-------------------------------|---------------------------------|---
|-------------------------------|---------------------------------|---
|-------2---2----------2---2----|-------2---2-------2---2---------|---
|-2--------------0h2-2----------|---------------------------------|---
|-----0------0---------------0--|-2h3-3-------0h2-2-------2---2h3-|-0-
|
|-------------------------------|---------------------------------|---
|-------------------------------|---------------------------------|---
|-------9-----------------------|-------9-------------------------|-9-
|-----------9-9-9-9-9-7---7-7-9-|-----------9-9-9-9-9-7---7-7-9---|---
|-7-7-7-------------------------|-7-7-7---------------------------|---
|-------------------------------|---------------------------------|---



+ - harmonics
/ - slide
h - hammer on
p - pull off
x - mute
b - bend (~half step, ~~full step)





Comments


Popular Days Of The New tabs & chords
Now Bass Tabs
Freak Chords
Die Born Tabs
Enemy Tabs
Enemy Segue Tabs
Flight Response Tabs
Freak Tabs
How Do You Know You? 1 Tabs
I Think Tabs
Whimsical Tabs


Song lyrics



↑ Back to top | Tablatures and chords are parodies/interpretations of the original songs. You may use it for private study, scholarship, research or language learning purposes only
© 2014 AZChords.com Contact us | Privacy policy | DMCA | Add/correct tabs | Request tabs | Top 50 tabs