» » »

Now Bass tabs (ver.1)

Artists:  A B C D E F G H I J K L M N O P Q R S T U V W X Y Z # 

Now Bass tabs (ver.1)

Days Of The New
Rating:
0/5 (0 votes)

Hard to play? Try these video lessons and learn fast.
                -------------------------------------------------------------------------------
                       From the album : Days of the New
-------------------------------------------------------------------------------


Tuning: Eb Standard, tab is relative to that

First and foremost the timing and structure is not 100% correct, this is an 
outline, you'll have to listen for the parts.  I also suck at naming sections.

I wasn't totally sure on the little slide/hammer thing he does in the 
second/pre-verse(?) section.  The rest is close but not 100%, he
definitely hits the higher E during the chorus and I just tabbed it one way.


Intro
G|---------------------------------------------------------------------------|
D|---------------------------------------------------------------------------|
A|---------------------------------------------------------------------------|
E|-0-----5-/-10-\-5-/-10-\-5-/-10-\-5-/-10-----8--7--------------------------|

                                                He alternates with this, 
  Main riff                       Turn around.  during verse and solo. Listen.
G|-------------------------------|-------------|-----------------------------|
D|---------5h7-----------------:-|-------------|----------------------------:|
A|-----5/7-----6-5---0---3-2---:-|---3---2-----|-----7-6-5----0--3-2--------:|
E|--5----------------------------|-----------5-|--5--------------------------|

Pre-Chorus                                Turn around. 1:20ish back to A
G|---------------------------------------|-----------------------------------|
D|---------5-7----------5-7--------4-4--:|-----------------------------------|
A|-------7------------7-----------------:|--3-3-3-3-------3------------------|
E|--5-5----------5-5---------5-5---------|-------------3---------------------|

After second Pre-Chorus 1:56ish
G|--------------|----------------------------------------------------|-------|
D|--------------|----------------------------------------------------|-------|
A|------------5-|---3-3-3-3--5---3-3-3-3--5---3-3-3-3-5---3-3-3-3--5-|-----3-|
E|--0-0-0-0-----|----------------------------------------------------|-3-5---|
                  This part comes again before the solo, with this ending ^

Chorus 2:20ish  Now, now.
G|---------------------------------------------------------------------------|
D|--------0-2--------0-2----------------0-2--------0-2----------0-2--------:-|
A|------2----------2------------------2----------2------------2------------:-|
E|-0-0---------0-0--------3--2----0-0--------0-0--------3--2-----------------|

Solo Outro                                     Outro riff
G|-------------|------------------------------|------------------------------|
D|-------------|------------------------------|------------------------------|
A|--3--2-------|------------------------------|------------------------------|
E|---------0---|------------------------------|-0----3---2-------------------|
            
Hard to play? Try these video lessons and learn fast. | Correct




comments powered by Disqus
↑ Back to top | Tablatures and chords are parodies/interpretations of the original songs. You may use it for private study, scholarship, research or language learning purposes only