» » »

How Do You Know You? Tabs (ver.2)

Artists:  A B C D E F G H I J K L M N O P Q R S T U V W X Y Z # 

How Do You Know You? Tabs (ver.2)

Days Of The New
Rating:
0/5 (0 votes)

Hard to play? Try these video lessons and learn fast.
                How Do You Know You?
Days Of The New

Tuning: Db Ab Db Gb Bb db

Intro
Figure 1
----------------------------------------------------------------------------|
----------------------------------------------------------------------------|
-----------2---------0-----2-----0------------------------------------------|
---0---------0---0-----0-----------0---0-----0-----0------------------------|
-----0-----------------------------------------3----------------------------|
-0-----0-2-----3---5-----5---5-5-----5---5-5-----5---3--3-3-----------------|

intro solo
----------------------------------------------------------------------------|
-8b9b8---------------------------8b9b8--------------------------------------|
-------7---5---------------------------7---5--------------------------------|
---------7---7--3-5-5b6b5-3-0-3----------7---7--3-5-5-5b6b5-3-0-3-----------|
------------------------------------------------------------------5p3h5-----|
----------------------------------------------------------------------------|

verse 1 (play figure 1)
All I see is all to see
Stubborn mind in front of me
If you want I'll go away
I'll be here some other day
How do you know you

Prechorus (play figure 1)
And I don't feel you now
How do you know you
And I don't see you now
How do you know you
And I don't hear you now
How do you know you
And I don't know you now
How do you know you

Chorus
Figure 2
-0--------------------------------------------------------------------------|
-3--3-3-3---3--3--3-3---3--3-3-3-3--3--3--3-3-------------------------------|
-2--2-2-2---2--2--2-2---0--0-0-0-0--0--0--0-0-------------------------------|
-0--0-0-0---0--0--0-0---0--0-0-0-0--0--0--0-0-------------------------------|
-0--0-0-0---3--3--3-3---5--5-5-5-5--5--5--5-5-------------------------------|
-0--0-0-0---0--0--0-0---5--5-5-5-5--5--5--5-5-------------------------------|
yes, I've kept the news from you
yes it's all in your mind
yes, I've kept the news from you
yes it's all in your mind

intro solo

verse 2
All I see is all to see
Nothing taking over me
How do you know you

Prechorus

Chorus

solo
12\10----10-----------------------------------------------------------------|
-----10-----10-8---------8-9-10-9-8----8-9-10-9-8----8-9-10-9-8-----------6-|
-----------------10-7-10------------10------------10------------10----------|
--------------------------------------------------------------------5-6-7---|
----------------------------------------------------------------------------|
----------------------------------------------------------------------------|

----------------------------------------------------------------------------|
----------------------------------------------------------------------------|
-5-5\7----7-5-------------------5-7-7\9-7-5-5h7p5-------5-------------------|
--------------7-5---------3-5\7-------------------7p5h7---------5h6h7-3p2---|
------------------8-5-3-5---------------------------------3h4h5-----------3-|
----------------------------------------------------------------------------|

----------------------------------------------------------------------------|
-------10----10-8-----------------------------------------------------------|
--------------------10--9------9v----10--7---5-5----------------5-------5---|
-2--------12---------------10-----------------------------5-7-8---8-7-5---5-|
---3\5----------------------------------------------5-7-8-------------------|
----------------------------------------------------------------------------|

----------------------------------------------------------------------------|
----------------------------------------------------------------------------|
---5-----5------------------------------------------------------------------|
---------------------5------------------------------------------------------|
-8---8-7---7-8-7-5-8---5-7v----8-5------------------------------------------|
----------------------------------------------------------------------------|

chorus

outro x2
--7--7--7--7------|----------------------------------------|
--5--5—-5--5------|----------------------------------------|
--5--7--7--7------|--8-------------------------------------|
------------------|----------------------------------------|
---------------x3-|----------------------------------------|
------------------|----------------------------------------|
How do you know
How do you know
How do you know
How do you know you



f**ker! You Whore Dick Head sl*t! f**k You Prick!
            
Hard to play? Try these video lessons and learn fast. | Correct




comments powered by Disqus
↑ Back to top | Tablatures and chords are parodies/interpretations of the original songs. You may use it for private study, scholarship, research or language learning purposes only