» » »

Flight Response Tabs (ver.1)

Artists:  A B C D E F G H I J K L M N O P Q R S T U V W X Y Z # 

Flight Response Tabs (ver.1)

Days Of The New
Rating:
5/5 (2 votes)

Hard to play? Try these video lessons and learn fast.
                -------------------------------------------------------------------------------
-------------------------------------------------------------------------------
I am surprise there is no stab at this awesome song so I thought to put mine up and is
for just 1 guitar unlike the album where it is more then 1 guitar and will try to add the
parts in there if you have to be dead on like the album but everything is here.Enjoy!!

Tuning:Open C#7 Tuning Low to High(C#,G#,C#,G#,B,C#)


e|--------------0-----1h4--1--------------0------1h4-------------------------|
B|--------------0-------------------------0----------------------------------|
G|--------------0-------------------------0----------------------------------|
D|---/4---1--0---1---------------/4--1--0--1------------/4---1---------------|
A|---------------------------------------------------------------------------|
E|---------------------------------------------------------------------------|

 Rhy Fig 1.. He repeats this pattern a lot but the opens vary..
e|-----------0----------0------0---------------0-------0-----0---------------|
B|-------------0-----------------0------------------------------0------------|
G|---------0---------------0----------------0-------------0------------------|
D|---------------------------------------------------------------------------|
A|---5--------------5-----------------5bv----------5-------------------------|
E|---------------------------------------------------------------------------|
               P.M                   This just repeats with the top measure played over it
e|------------------------0-----0--------------------------------------------|
B|--------------------------------0------------------------------------------|
G|---------0-----------------0--------------0----------3---3---6-------------|
D|---------------------------------------------------------------------------|
A|--5bv--------------5----------------5bv--------------3---3---6-------------|
E|--------------0---------------------------------0--------------------------|

 Rhy Fig.1                               Play X2 Then
e|---0-0----0--0-------0---0----0---0---0------------------------------------|
B|---0-0----0--0-------0---0----0---0---0------------------------------------|
G|---0-2/3--3--3-------3---3----3---3---3-----3---3---6----------------------|
D|---0-0----0--0-------0---0----0---0---0------------------------------------|
A|--------------------------------------------3---3---6----------------------|
E|------------------0--------------------------------------------------------|
 Guitar 2 behind Rhy Fig .1 is playing this pattern
e|--9\-10--10--10-10-10-10-10-10---9/10\7-7--7-7--7-7--7-7--10--10--10--12-12|
B|---------------------------------------------------------------------------|
G|---------------------------------------------------------------------------|
D|--9\-10--10--10-10-10-10-10-10---9/10\7-7--7-7--7-7--7-7--10--10--10--12-12|
A|---------------------------------------------------------------------------|
E|---------------------------------------------------------------------------|

e|--9/10--10-10-10-10--9--9---7--7---9---9---9----x---7--7--7--7-3--7-7--7--7|
B|---------------------------------------------------------------------------|
G|---------------------------------------------------------------------------|
D|--9/10--10-10-10-10--9--9---7--7---9---9---9----x---7--7--7--7-3--7-7--7--7|
A|---------------------------------------------------------------------------|
E|---------------------------------------------------------------------------|
 Rhy Fig 3./Chorus Chords..not exact strumming on chords just have to listen
e|--4--4---------2----0---0--------------------------------------------------|
B|--0--0---4-4---2----0---0--------------------------------------------------|
G|--3--3---3-3---0----0---0--------------------------------------------------|
D|--0--0---0-0--------3---5--------------------------------------------------|
A|--0--0---0-0---3--------5--------------------------------------------------|
E|--0--0---0-0------------3--------------------------------------------------|

 This is played behind Rhy fig 3.
e|----------4---4--------0-------------0--------------0-----------------0----|
B|------------0----------------------0-------------4-----------------4-------|
G|--2h3--0---------2h3-0---3p0--2h3-------3p0--2h3--------3p0---2h3----------|
D|---------------------------------------------------------------------------|
A|---------------------------------------------------------------------------|
E|---------------------------------------------------------------------------|
  run ..run..running insane…follow the pain( This repeats over Rhy Fig 1 over and over)
e|---------------------------------------------------------------------------|
B|--9-9--11--9--12-12--12h9-9--11h12-9-11h9-9--12-12-12h9--9--11h12----------|
G|--0-0--0---0--0--0---0----0--0-----0-0----0--0--0--0-----0--0--------------|
D|---------------------------------------------------------------------------|
A|---------------------------------------------------------------------------|
E|---------------------------------------------------------------------------|
  This repeats over Rhy Fig 1 over and over

 (Outro)& Won't be safe again part which he picks different live each time
e|---------------------------------------------------------------------------|
B|-----------------------------------------------------------------------0--0|
G|----0-----0----0-----0-----0----------------0-------0---0-----0--------0--0|
D|-----0--3---0----3-----0-5------0-------------0--3----0---------0-3--------|
A|-5----------------------------------0--------------------------------5--5--|
E|-----------------------------3----4-----5-------------------3--------------|

 This will get you to play it like i have seen him play it live but he does pick it
a lot but it's all here except the small parts here and there on the album version but i am
going to the extreme but if you need to know a part just message me on here and i'll get 
to you as soon as i can and Enjoy this awesome song!
************************************

| /   slide up
| \   slide down
| h   hammer-on
| p   pull-off
| ~   vibrato
| +   harmonic
| x   Mute note
| b   Bend
| pb  Pre-bend
| br  Bend release
| pbr Pre-bend release
| brb Bend release bend

************************************
            
Hard to play? Try these video lessons and learn fast. | Correct




comments powered by Disqus
↑ Back to top | Tablatures and chords are parodies/interpretations of the original songs. You may use it for private study, scholarship, research or language learning purposes only