» » »

Enemy Segue Tabs (ver.1)

Artists:  A B C D E F G H I J K L M N O P Q R S T U V W X Y Z # 

Enemy Segue Tabs (ver.1)

Days Of The New
Rating:
0/5 (0 votes)

Hard to play? Try these video lessons and learn fast.
                Tuning: C,G,D,G,Bb,D (Tuned down 1/2 step)

This is the segue that leads into enemy.

Guitar 1:
|----------------0---------------|----------------------------
|--------0-2-2/4-----2-0---------|----------------------------
|--------0---------------0-------|----------------------------
|--------0-------------------0---|----------------------------
|--------------------------------|----------------------------
|
|Guitar 2:
|--------------------------------|----------------------------
|--------------------------------|----------------------------
|--------------------------------|----------------------------
|--------------------------------|----------------------------
|--------------------------------|----------------------------
|--------------------------------|----------------------------




|0-------------------------------|12------------------------------
|0---0-------------------2-------|12--12--------------------------
|0-------0---------------0-------|12------12----------------------
|0-----------0-----------0-------|12----------12------------------
|0---------------0-------5-------|12--------------12--------------
|--------------------0-----------|--------------------------------
|
|--------------------------------|--------------------------------
|------------------------------0-|------------------------------0-
|----------------------------0---|----------------------------0---
|--------------5---0-0-0-0-3-----|--------------5---0-0-0-0-3-----
|0---0-5---0-0-------------------|0---0-5---0-0-------------------
|--------------------------------|--------------------------------




|0-------------------------------|----------------0---------------
|0---0-------------------2-------|--------0-2-2-4-----2-0---------
|0-------0---------------0-------|--------0---------------0-------
|0-----------0-----------0-------|--------0-----------------------
|0---------------0-------5-------|--------0-------------------0---
|--------------------0-----------|--------------------------------
|
|--------------------------------|--------------------------------
|------------------------------0-|------------------------------0-
|----------------------------0---|----------------------------0---
|--------------5---0-0-0-0-3-----|--------------5---0-0-0-0-3-----
|0---0-5---0-0-------------------|------5---0-0-------------------
|--------------------------------|0---0---------------------------




|--------------------------------|----------------12--------------
|--------------------------------|----------------12--12----------
|--------------------------------|----------------12------12------
|--------------------------------|----------------12----------12--
|--------------------------------|----------------12--------------
|--------------------------------|--------------------------------
|
|--------------------------------|--------------------------------
|------------------------------0-|------------------------------0-
|----------------------------0---|----------------------------0---
|--------------5---0-0-0-0-3-----|--------------5---0-0-0-0-3-----
|0---0-5---0-0-------------------|0---0-5---0-0-------------------
|--------------------------------|--------------------------------



|--------------------------------|--------------------0-----------
|--------2-----------------------|------------2---2/4-----2-0-----
|--------0-----------------------|------------0---------------0---
|--------0-----------------------|------------0-------------------
|12------5-----------------------|------------5-------------------
|----0---------------------------|--------------------------------
|
|--------------------------------|--------------------------------
|------------------------------0-|------------------------------0-
|----------------------------0---|----------------------------0---
|--------------5---0-0-0-0-3-----|--------------5---0-0-0-0-3-----
|------5---0-0-------------------|------5---0-0-------------------
|0---0---------------------------|0---0---------------------------


* There is a time change here *
|------------0-----------|------------0-----------|------------0-----------
|------0-2/4-----2-0-----|------0-2/4-----2-0-----|------0-2/4-----2-0-----
|--------------------0---|--------------------0---|--------------------0---
|------------------------|------------------------|------------------------
|0-----------------------|0-----------------------|0-----------------------
|
|------------------------|------------------------|------------------------
|------------------------|------------------------|------------------------
|----------------------0-|--------------0-------0-|--------------0-------0-
|--------------------0---|--------------------0---|--------------------0---
|------5---------5/6-----|------0---------5/6-----|----3/5---------5/6-----
|0-------0---------------|0-------0---------------|0-------0---------------


* Repeat this line *
|------------0-----------
|------0-2/4-----2-0-----
|--------------------0---
|------------------------
|------------------------
|0-----------------------
|
|------------------------
|------------------------
|------0-------0-------0-
|--------------------0---
|----------------5/6-----
|0-------0---------------
            
Hard to play? Try these video lessons and learn fast. | Correct




comments powered by Disqus
↑ Back to top | Tablatures and chords are parodies/interpretations of the original songs. You may use it for private study, scholarship, research or language learning purposes only