>
 >
Enemy 2

Enemy 2 Guitar Tabs

Days Of The New - Enemy 2 chords, tabs, tablatures, lyrics

Guitar lessons | Add/correct | Request | Top 50 tabs Artists:  A B C D E F G H I J K L M N O P Q R S T U V W X Y Z 0-9

Enemy 2 Guitar Tabs – Days Of The New

CD, Sheet music, Poster

Do you like Enemy 2? Share with your friends now
Bass TabsTabsTabs v2Tabs v3
-------------------------------------------------------------------------------
                             Enemy(Solo) - Days Of The New
-------------------------------------------------------------------------------

Been asked to tab out the solo for this song a few times and just now getting around to 
because i never included it with my tab i posted on here but now here it is and hope 
helps you out.
Tuning:(Low to High)B,F#,C#,F#,A,C#

 Outro/Solo                                     Rake
e|---------------------------------------------------------------------------|
B|---------------------------------------------------------------------------|
G|-------------------------------------------------3----5V--3V-------5--5/6--|
D|-----------------------3--5h3-----3h5---3V-----0----------------0----------|
A|------3--5h3-0---3h5-----------5-------------0-----------------------------|
E|-5h7-----------------------------------------------------------------------|

e|------------------------10bh8----------------------------------------------|
B|------------------------------9v---7/9\7-----------0-----------------------|
G|-5---3b-------------------------------------8-----------7----10--12--5/6---|
D|----------5---3-5--3----------------------8-----------7--------------------|
A|-----------------------------------------------------------------12--5/6---|
E|---------------------------------------------------------------------------|

e|---------------------------------------------------------------------------|
B|---------------------------------------------------------------------------|
G|--------------0-3p0-----------0h3p0---------0h3p0---0---5/6\5-3-----5/6\5--|
D|---------------------0--------------0----0--------0--------------5---------|
A|--5--3h5/7--------------5/7-----------5------------------------------------|
E|---------------------------------------------------------------------------|

e|---------------------------------------------------------------------------|
B|-----------4--7-7b--5--4---5h4-----4---------------------------------------|
G|-3----5/6-----------------------6------6-5-3---5/6\5-3----3----------------|
D|---5---------------------------------------------------5-----5--3h5-3------|
A|---------------------------------------------------------------------------|
E|---------------------------------------------------------------------------|

e|------------------------12---15-15bv--12---15---15b-12---------------------|
B|--------------------9-----------------------------------14-12--14b---------|
G|---------------0-7-----------------------------------------------------3---|
D|---------------------------------------------------------------------5-----|
A|-5--3h5-3-0--------------------------------------------------------6-------|
E|---------------------------------------------------------------------------|

e|------------------------------------------------5v--7-8--7v--8-10--12+-----|
B|----------------------9--7-------7--5--4--------5v-------7v--------12+-----|
G|------3--3/5--3--5/7--9--7--5/7--7--5--3--------5v-------7v--------12+-----|
D|---5---------------------------------------7+---5v-------7v--------12+-----|
A|-6-----------------------------------------7+------------------------------|
E|---------------------------------------------------------------------------|

e|--5v--7-8--7v--8-10--------5v--7-8--7v--8--10-12/15---12--5v--7-8-7v-8---10|
B|--5v-------7v--------------5v-------7v--------------------5v------7v-------|
G|--5v-------7v---------12+--5v-------7v--------------------5v------7v-------|
D|--5v-------7v---------12+--5v-------7v--------------------5v------7v-------|
A|---------------------------------------------------------------------------|
E|---------------------------------------------------------------------------|

e|---------------------------------------------------------------------------|
B|---------------------------------------------------------------------------|
G|--17--18h17--15------17-18-17--15-------------17--18-17--15-------15-------|
D|-----------------17----------------17-15-17------------------17------17-15-|
A|---------------------------------------------------------------------------|
E|---------------------------------------------------------------------------|


e|------------------------------------------------17------15-----13------12--|
B|---------------------------------------------------------------------------|
G|------17-18--17-15------17-18-17-15------15--15-----14------12-----10------|
D|--17---------------17----------------17------------------------------------|
A|---------------------------------------------------------------------------|
E|---------------------------------------------------------------------------|

e|-----------------------------------------------------------------------------|
B|-----------------------------------------------------------------------------|
G|-17-18-17-15------17-18-17-15----------And just repeat this -----------------|
D|--------------17---------------17--15----------------------------------------|
A|-----------------------------------------------------------------------------|
E|-----------------------------------------------------------------------------|

Hope this Helps!!
************************************

| /   slide up
| \   slide down
| h   hammer-on
| p   pull-off
| ~   vibrato
| +   harmonic
| x   Mute note
| b   Bend
| pb  Pre-bend
| br  Bend release
| pbr Pre-bend release
| brb Bend release bend

************************************





Comments


Popular Days Of The New tabs & chords
Freak Chords
Solitude Chords
Bring Me Down (Intro) Tabs
Dirty Road Tabs
I Think Tabs
Once Again Tabs
Orch Of The Medium Tabs
The Character/The Threat Tabs
The Sun Tabs
Touch, Peel And Stand 1 Tabs


Song lyrics



↑ Back to top | Tablatures and chords are parodies/interpretations of the original songs. You may use it for private study, scholarship, research or language learning purposes only
© 2014 AZChords.com Contact us | Privacy policy | DMCA | Add/correct tabs | Request tabs | Top 50 tabs