» » »

Enemy Tabs (ver.1)

Artists:  A B C D E F G H I J K L M N O P Q R S T U V W X Y Z # 

Enemy Tabs (ver.1)

Days Of The New
Rating:
0/5 (0 votes)

Hard to play? Try these video lessons and learn fast.
                -----------------------------------------------------------------------
                             SONG NAME - ENEMY
-----------------------------------------------------------------------
BAND:DAYS OF THE NEW
Open F#M Tuning
Tuning:B,F#,C#,F#,A,C#

I noticed the other tab was way off so I thought to do it myself.This is the Basic
of the song.IF I can take the time to get you in the right direction you can figure out how
times to play each part and chords.If you want to learn the song then you should know 
song.If you want the solo just email.Awsome song and fun to play.Enjoy

e|---------------------------------------------------------------------|
B|---------------------------------------------------------------------|
G|---------------------------------------------------------------------|
D|---------------------------------------------------------------------|
A|--0----------0-------0-----------------------------------------------|
E|-----2---5-------5---------------------------------------------------|

e|---------------------------------------------------------------------|
B|---------------------------------------------------------------------|
G|---------------------------------------------------0-----------------|
D|----------0----------0---------------0-----------------------------0-|
A|-------0----------0----------------------------0----------------0----|
E|--5^7---------2----------5---7---5-------5^7-------------0---2-------|
  P.M
e|---------------------------------------------------------------------|
B|---------------------------------------------------------------------|
G|---------------------------------------------------------------------|
D|------------0--------------------------------------------------------|
A|---------------------------------------------------------------------|
E|--5--7---5-----5^7---------------------------------------------------|

e|---------------------------------0-----------------------------------|
B|---------------------------------2-----------------------------------|
G|-----0---------------------------0-----------------------------------|
D|-----------------0-------------0-0-----------------------------------|
A|--0-----------0------------------5-----------------------------------|
E|--------0--2---------5--7--5-----0-----------------------------------|
   Need to change it …now
                                (CHORUS Chords)
e|---------------------------------5---7---0---0--0--------------------|
B|--2^4-4-4---2^4-0-0--------------0---0---2---0--2--------------------|
G|--0---0-0-------0-0--------------0---0---0---0--0--------------------|
D|---------------------------------5---7---0---0--0--------------------|
A|-----------------------------------------5---3--5--------------------|
E|---------------------------------5---7-------------------------------|
  Im not the one whos trying…………


  BREAKDOWN PART  6 Times
e|---------------------------------------------------------------------|
B|---------------------------------------------------------------------|
G|---------------------------------------------------------------------|
D|---------------------------------------------------------------------|
A|-3^5--5-5---3^5-5-5----3^5-5-5---3^5--5-5---0--0--3------------------|
E|-0----0-0---0---0-0----0---0-0---0----0-0---0--0--0------------------|


e|----------------0-------------------3----------------------------8---|
B|---------0---------0---------0--------0-----2^0-----------0----------|
G|------------0---------0---------0--------0------0------0-----0-------|
D|-----0---------------------------------------------------------------|
A|--0----------------------3--------------------------5----------------|
E|---------------------------------------------------------------------|
      I went in killing the sun…………………..

                                  (Chords)
e|-----3----------3----------1^0----0--5--3---3-3--8--3----------------|
B|-0---0----0------------2^0--------0--0--0---0-2--0--0----------------|
G|---0-0-------0--------------------0--0--0---0-0--0--0----------------|
D|-----0----------------------------0--0--0---0-0-----0----------------|
A|-----3----------------------------0--0--0---3-3--5--3----------------|
E|-----3--------------2-------------------------------3----------------|
                                  I went in Killing the sun……………………….

| /  slide up
| \  slide down
| h  hammer-on
| p  pull-off
| ~  vibrato
| +  harmonic
| x  Mute note
=======================================================================
            
Hard to play? Try these video lessons and learn fast. | Correct




comments powered by Disqus
↑ Back to top | Tablatures and chords are parodies/interpretations of the original songs. You may use it for private study, scholarship, research or language learning purposes only